Oops, an error
Loading. Please wait.

Insomnia tab

version 1
version 1

Whole song

  • This is the most accurate version of Insomnia in G... Show more

Interactive

by Niil'
1,384 views 15 this week
4 commentsread comments
1 2 3 4 5
x 4
add to favorites
×
Save as Personal and add changes to this tab that will be seen only by you. Learn more ›
×
You can save this tab as Personal to edit and correct it or add notes. All changes will be seen only by you. Learn more »
launch autoscroll
font size
0
reset
how to read this tab
guitar tuner
edit
Autoscroll
slow
fast
+/-
esc
set tempo
stop
About this tab version
This is the most accurate version of Insomnia in Guitar, including the solo, the TAB was made note by note. Was this info helpful? Yes No
Tunning: Half Step Down with Drop C#
[Intro/Verse]  
eb|--------------------------------|-------------------------------------------|
Bb|--------------------------------|-------------------------------------------|
Gb|--------------------------------|-------------------------------------------|
Db|-------3-------2-------0------0-|-------3-------2-0-----3-------3-----------|
Ab|-0-1-1---1-0-0---0---0---0---0--|-0-1-1---1-0-0-------3---3---3---3---------|
C#|-------------------0-------0----|-------------------3-------3---------------|

[Chorus] 
(Found the rythm by yourself >:v)
   -The 0 notes are one time just for chord change-
    C5     A5  A#5    F5
eb|------------------------|
Bb|------------------------|
Gb|-5-0---2-0---3-0--------|
Db|-5-0---2-0---3-0---3-0--|
Ab|-3-0---0-0---1-0---3-0--|
C#|-------------------3-0--|

[Chorus End]
-With downpicking-
    A#5          C5
eb|-------|------------------------------------------------------|
Bb|-------|------------------------------------------------------|
Gb|-3-----|---3-/-5---5-5---5-5-5---5----------------------------|
Db|-3-x16-|---3-/-5---5-5---5-5-5---5-x7-Found the rythm here----|
Ab|-1-----|---1-/-3---3-3---3-3-3---3----------------------------|
C#|-------|------------------------------------------------------|

[Solo]
eB|----------------------------------------------------------------------------------------------------------|
BB|----------------------------------------10-10-------------------------------------------------------------|
GB|/7-7-9-9-10-12-10-9-9-9-9--12-12--10-9-9-------12-10--10-9--9-9--12-10--10-9--9-9--12-12-10-9-9-9-9--12-12|
DB|----------------------------------------------------------------------------------------------------------|
AB|----------------------------------------------------------------------------------------------------------|
C#|----------------------------------------------------------------------------------------------------------|

eb|------------------------------------------|-/8-8-------------/8-8-----------------------------------------|
Bb|-------10-10------------10-10-------------|-----11--10-10-8------11--10-10-8--10/11-11-10-8--8----------11|
Gb|10-9-9-------12-10--10-9-------12-10--10-9|----------------------------------------------------10--10-10--|
Db|------------------------------------------|---------------------------------------------------------------|
Ab|------------------------------------------|---------------------------------------------------------------|
C#|------------------------------------------|---------------------------------------------------------------|

eb|----|---------------------------------------------------------------------------|
Bb|8-8-|---------------------------------------------------------------------------|
Gb|----|10-10--10/12-12--10\9-9-9--9h10-10-9\7-7-7--7h9-9-7\6-6-6--6h7-7-6\4-4-4-4-|
Db|----|---------------------------------------------------------------------------|
Ab|----|---------------------------------------------------------------------------|
C#|----|---------------------------------------------------------------------------|

**************************************************************************************************************

| h   Hammer-on
| /   Slide up
| \   Slide down

**************************************************************************************************************

            
            
Suggest correction
Creating personal tab
Creating personal tab
You can edit any tab online and save it as your Personal.

You can edit, replace or remove any tab part or add personal notes – all changes will be seen only by you.

Personal tabs can be accessed anytime from any device, even offline.
Learn more »
comments
print report bad tab
4 comments total. Showing first comments.
0 reply
GrungeBloke 32 Feb 08, 2017 03:40 PM, edited at 10:32 pm

Great tab, solo is pretty much there.

0 reply
TonyBaker45 20 Jun 05, 2017 05:38 PM

GREAT!

0 reply
nadavgar9 10 Sep 20, 2017 10:26 AM

been looking for this for so long thanks bro!!

guest
You may want to rate the tab now too:
select rating
Wanna post a correction for this tab? Suggest correction