Oops, an error
Loading. Please wait.

Lapsen Tie On Aamun Tie chords

760 views 33 this week
no commentswrite comment
1 2 3 4 5
2 more votes to show rating
add to favorites
×
Save as Personal and add changes to this tab that will be seen only by you. Learn more ›
×
You can save this tab as Personal to edit and correct it or add notes. All changes will be seen only by you. Learn more »
launch autoscroll
font size
0
reset
transpose
0
reset
display chords
guitar tuner
edit
Autoscroll
slow
fast
+/-
esc
set tempo
stop
Author
Difficulty
Strumming
There is no strumming pattern for this song yet. and get +5 IQ
[Intro]
    Dm          Gm            Dm          Dm
e|-----------1-----------3-|-----------1-----------1-|
B|---------3-----------3---|---------3-----------3---|
G|-------2-----------3-----|-------2-----------2-----|
D|-----0-----------5-------|-----0-----------0-------|
A|---0-----------5---------|---0-----------0---------|
E|-0-----------3-----------|-0-----------0-----------|


[Verse]

Dm            Gm    Dm
Lapsen tie on aamun tie,
C                   F A
aurinko loistaa sen yllä.
Dm               Gm       Dm
Minne se kulkee, minne se vie?
C                F  A
Outo se vielä on kyllä.
Dm      Gm        A
Kukkien valkoiset tähdet,
Dm      Gm      A  C
hauraat siniset kellot,
Dm               Gm
laihoa tuoksuvat pellot
Dm       A     Dm
kysyvät: minne lähdet?


Dm              Gm     Dm          
Lähden matkalle vaikka en
C               F  A       
tiestäni mitään tiedä.
Dm              Gm   Dm          
Kuljen rinnalla enkelten,
C               F  A        
joilta ei valoa viedä.
Dm        Gm        A       
Vaikka en tunnekaan matkaa,
Dm       Gm      A           
keväästä riennän kesään
F         Dm       Gm       
niin kuin lintunen pesään
Dm        A        Dm                
lentää ja lentoaan jatkaa.


    Dm          Gm            Dm          Dm
e|-----------1-----------3-|-----------1-----------1-|
B|---------3-----------3---|---------3-----------3---|
G|-------2-----------3-----|-------2-----------2-----|
D|-----0-----------5-------|-----0-----------0-------|
A|---0-----------5---------|---0-----------0---------|
E|-0-----------3-----------|-0-----------0-----------|


Dm              Gm  Dm                                  
Paimen tielleni annetaan,
C                   F  A     
hän minut tuntee ja johtaa.
Dm            Gm    Dm              
Aamu tuo iloa tullessaan,
C                 F  A       
kauas sen valkeus hohtaa.
Dm     Gm        A           
Elämä, sana niin suuri
Dm       C      A           
vielä on käsittämättä.
Dm            Gm           
Monta rakasta kättä
Dm      A      Dm           
lähellä nyt on juuri.


[Outro]

    Dm
e|-----------1-|
B|---------3---|
G|-------2-----|
D|-----0-------|
A|---0---------|
E|-0-----------|

            
            
Suggest correction
Creating personal tab
Creating personal tab
You can edit any tab online and save it as your Personal.

You can edit, replace or remove any tab part or add personal notes – all changes will be seen only by you.

Personal tabs can be accessed anytime from any device, even offline.
Learn more »
Give kudos to tab author, rate the tab!
1 2 3 4 5
comments
print report bad tab
guest
You may want to rate the tab now too:
select rating
Wanna post a correction for this tab? Suggest correction