Oops, an error
Loading. Please wait.

The Fall Of Birds - 2 Toccata tab

136 views 1 this week
no commentswrite comment
1 2 3 4 5
3 more votes to show rating
add to favorites
×
Save as Personal and add changes to this tab that will be seen only by you. Learn more ›
×
You can save this tab as Personal to edit and correct it or add notes. All changes will be seen only by you. Learn more »
launch autoscroll
font size
0
reset
how to read this tab
guitar tuner
edit
Autoscroll
slow
fast
+/-
esc
set tempo
stop
Author
THE FALL OF BIRDS - 2. TOCCATA
by Nikita Koshkin


  Presto
                    <                 >                 <       >
|-----------------|-----------------|-----------------|-----------------|
|-----------------|-----------------|-----------------|-----------------|
|-----------------|-----------------|-----------------|-----------------|
|---4---4---4---4-|---4---4---4---4-|---5---5---4---4-|---5---5---4---4-|
|-2-2-2-2-2-2-2-2-|-2-2-2-2-2-2-2-2-|-3-3-3-3-2-2-2-2-|-3-3-3-3-2-2-2-2-|
|-----------------|-----------------|-----------------|-----------------|


  <       >         <                               >           <
|-----------------|-----------------|-----------------|------------------|
|-----------------|-----------------|-----------------|------------------|
|-----------------|-----------2---4-|---5---5---5---5-|---4---2---4---2--|
|---5---5---4---4-|---4---5-0-0-2-2-|-3-3-3-3-3-3-3-3-|-2-2-0-0-2-2-0-0--|
|-3-3-3-3-2-2-2-2-|-2-2-3-3---------|-----------------|------------------|
|-----------------|-----------------|-----------------|------------------|


          >                   <           >             <
|-----------------|-----------------|-----------------|------------------|
|-----------------|-----------------|-----------------|------------------|
|---5---5---5---5-|---4---2---4---2-|---5---4---2-----|------------------|
|-3-3-3-3-3-3-3-3-|-2-2-0-0-2-2-0-0-|-3-3-2-2-0-0---5-|---4---4---4---3--|
|-----------------|-----------------|-------------3-3-|-2-2-2-2-2-2-3-3--|
|-----------------|-----------------|-----------------|------------------|


      >             <                     >
|-----------------|-----------------|-----------------|
|-----------------|-----------------|-----------------|
|-----------------|-----------------|-----------------|
|---0---0---0---0-|---4---4---4---3-|---0---0---0---0-|
|-4-4-4-4-4-4-4-4-|-2-2-2-2-2-2-3-3-|-4-4-4-4-4-4-4-4-|
|-----------------|-----------------|-----------------|


  <                 >                 <
|-----------------|-----------------|-----------------|------------------|
|-----------------|-----------------|-----------------|------------------|
|---4---4---4---3-|---0---0---0---0-|---4---4---4---3-|---0---0---0---0--|
|-2-2-2-2-2-2-3-3-|-4-4-4-4-4-4-4-4-|-2-2-2-2-2-2-3-3-|-4-4-4-4-4-4-4-4--|
|-----------------|-----------------|-----------------|------------------|
|-----------------|-----------------|-----------------|------------------|


|-----------------|-----------------|-----------------|------------------|
|-----------------|-----------------|-----------------|---------0-0-1-1--|
|-----------------|---------4-4-1-1-|-0-0-4-4-1-1-0-0-|-1-1-3-3----------|
|-----------------|-----2-2---------|-----------------|------------------|
|-----4-4-3-3-0-0-|-1-1-------------|-----------------|------------------|
|-3-3-------------|-----------------|-----------------|------------------|


  <
|---5---5---5---5-|---5---5---5---5-|---5---5---5---5-|---5---5---5---5--|
|-3-3-3-3-3-3-3-3-|-3-3-4-4-3-3-4-4-|-3-3---3---3---3-|-3-3-4-4-3-3-4-4--|
|-----------------|-----------------|-----0-------0---|------------------|
|-----------------|-----------------|---------0-------|------------------|
|-----------------|-----------------|-----------------|------------------|
|-----------------|-----------------|-----------------|------------------|


|---5---5---5---5-|---5---5---5---5-|---5---5---5---5-|---5---5---5---5--|
|-3-3---3---3---3-|-3-3---3---3---3-|-3-3---3---3---3-|-3-3---3---3---3--|
|-----0-------0---|-----1-------1---|-----1-------1---|-----1-------1----|
|---------0-------|---------1-------|---------1-------|---------1--------|
|-----------------|-----------------|-----------------|------------------|
|-----------------|-----------------|-----------------|------------------|


                                      >             >
|---5---5---5---5-|-----------------|-----------------|------------------|
|-3-3---3---3---3-|-----------------|-----------------|------------------|
|-----1-------1---|-----------------|-----------------|------------------|
|---------1-------|-0-0-1-1-3-3-----|-----------------|------------------|
|-----------------|-------------0-0-|-1-1-3-3-1-1-3-3-|-1-1-0-0----------|
|-----------------|-----------------|-----------------|---------5-5-4-4--|


|-----------------|-----------------|-----------------|---11----12---11-----|
|-----------------|-----------------|---------------9-|-9--9-10-10-9--9-----|
|-----------------|-----------------|-----------6-6-6-|-----------------0---|
|-----------------|-----------------|-------4-4-4-----|---------------------|
|---2---2---2---2-|---2---2---2---2-|---2-2-2---------|---------------------|
|-2-2-2-2-2-2-2-2-|-2-2-2-2-2-2-2-2-|-2-2-------------|---------------------|


|-----------------|---11----12---11---11-|---11----12---11---11-|
|---------------9-|-9--9-10-10-9--9----9-|-9--9-10-10-9--9----9-|
|-----------6-6-6-|-----------------0----|-----------------0----|
|-------4-4-4-----|----------------------|----------------------|
|---2-2-2---------|----------------------|----------------------|
|-2-2-------------|----------------------|----------------------|


|---11----12----14----14-|----14----14----12----14-|
|-9--9-10-10-12-12-13-13-|-12-12-13-13-10-10-12-12-|
|------------------------|-------------------------|
|------------------------|-------------------------|
|------------------------|-------------------------|
|------------------------|-------------------------|


|----12----14---11----12-|---11---11---11----12--|
|-10-10-12-12-9--9-10-10-|-9--9----9-9--9-10-10--|
|------------------------|------0----------------|
|------------------------|-----------------------|
|------------------------|-----------------------|
|------------------------|-----------------------|


|---11---11---11----12-|----14----14----14----14-|
|-9--9----9-9--9-10-10-|-12-12-13-13-12-12-13-13-|
|------0---------------|-------------------------|
|----------------------|-------------------------|
|----------------------|-------------------------|
|----------------------|-------------------------|


|----12----12----12----12-|---11----12---11---11--|
|-10-10-12-12-10-10-12-12-|-9--9-10-10-9--9----9--|
|-------------------------|-----------------0-----|
|-------------------------|-----------------------|
|-------------------------|-----------------------|
|-------------------------|-----------------------|


|---11----12---11---11-|---11---10----------|-----------------|
|-9--9-10-10-9--9----9-|-9--9-8--8---11---7-|-----------------|
|-----------------0----|-----------9--9-7-7-|---8---5---------|
|----------------------|--------------------|-6-6-5-5---8---4-|
|----------------------|--------------------|---------7-7-5-5-|
|----------------------|--------------------|-----------------|


|-----------------|-----------------|-----------------|------------------|
|-----------------|-----------------|-----------------|------------------|
|-----------------|-----------------|---------2-2-2-2-|-2-2-2-2-2-2-2-2--|
|---3---3---3---3-|---2---0---2---0-|---2---0---------|------------------|
|-4-4-4-4-4-4-4-4-|-3-3-0-0-3-3-0-0-|-3-3-0-0---------|------------------|
|-----------------|-----------------|-----------------|------------------|


|-----------------|-----------------|-----------------|------------------|
|-----------------|-----------------|-----------------|------------------|
|-5p4-2-----------|-----------------|-----------------|------------------|
|-------5-3-2-----|-----------------|-----------------|------------------|
|-------------5-3-|-2h3-3-3-2h3-3-3-|-2h3-3-3-2h3-3-3-|---------------0--|
|-----------------|-----------------|-----------------|-0-2-3-5-6-5-6----|


|-----------------|-----------------|-----------------|------------------|
|-----------------|-----------------|-----------------|------------------|
|-----------------|-----------------|-----------------|------------------|
|-----------------|-----------------|-----------------|------------------|
|-2h3-3-3-2h3-3-3-|---------------0-|-2h3-3-3-2h3-3-3-|---------------0--|
|-----------------|-0-2-3-5-6-5-6---|-----------------|-0-2-3-5-6-5-6----|


|-----------------|------------------|-----------------|-------------------|
|-----------------|------------------|-----------------|-------------------|
|-----------------|------------------|-----------------|-------------------|
|-----------------|-^3h4-4-4-3h4-4-4-|-----------------|-^3h4-4-4-3h4-4-4--|
|-2-0-2-3-5p3-5-6-|-^3---------------|---0-2-3-5-3-5-6-|-^3----------------|
|-----------------|-^3---------------|-6---------------|-^3----------------|


|-----------------|------------------|-----------------|------------------|
|-----------------|------------------|-----------------|------------------|
|-----------------|------------------|-2h3-----2h3-----|-2h3-----2h3------|
|-----------------|-^3h4-4-4-3h4-4-4-|-----3h4-----3h4-|-----3h4-----3h4--|
|---0-2-3-5-3-5-6-|-^3---------------|-----------------|------------------|
|-6---------------|-^3---------------|-----------------|------------------|


|-----------------|-----------------|---------------0-|-2p0-0-0-3p0-0-0--|
|-----------------|-----------------|---------0-2-3---|-2----------------|
|-2h3-3-3-3p0-0-0-|-2h3-3-3-3p0-0-0-|---0-2-3---------|-1----------------|
|-----------------|-----------------|-4---------------|-1----------------|
|---------2-------|---------2-------|-----------------|------------------|
|---------2-------|---------2-------|-----------------|------------------|


|---------------0-|-2p0-0-0-3p0-0-0-|-----------0-2-3-|-5p3-3-3-6p3-3-3--|
|---------0-2-3---|-2---------------|-----0-2-3-------|-4----------------|
|---0-2-3---------|-1---------------|-2-3-------------|-3----------------|
|-4---------------|-1---------------|-----------------|-3----------------|
|-----------------|-----------------|-----------------|------------------|
|-----------------|-----------------|-----------------|------------------|


|-----------0-2-3-|-5p3-3-3-6p3-3-3-|---0---2---3---5-|
|-----0-2-3-------|-4---------------|-0---------------|
|-2-3-------------|-3---------------|-----3---1---0---|
|-----------------|-3---------------|-----------------|
|-----------------|-----------------|-----------------|
|-----------------|-----------------|-----------------|


|-6h7-7-7-6h7-7-7-|-7p0-0-0-8p0-0-0-|-6h7-7-7-6h7-7-7-|-7p0-0-0-8p0-0-0--|
|-----------------|-7---------------|-----------------|-7----------------|
|-----------------|-5---------------|-----------------|-5----------------|
|-6---------------|-5---------------|-6---------------|-5----------------|
|-----------------|-6---------------|-----------------|-6----------------|
|-----------------|-----------------|-----------------|------------------|


|-8h9-9-9-8h9-9-9-|-9p0-0-0-10p0-0-0-|-8h9-9-9-8h9-9-9-|-9p0-0-0-10p0-0-0--|
|-----------------|-9----------------|-----------------|-9-----------------|
|-----------------|-7----------------|-----------------|-7-----------------|
|-8---------------|-7----------------|-8---------------|-7-----------------|
|-----------------|-8----------------|-----------------|-8-----------------|
|-----------------|------------------|-----------------|-------------------|


|-12h13-13---------------|----------------6h|
|-------------------9h10-|-10---------------|
|----------10h11-11------|------------------|
|--0---------------------|----------7h8-8---|
|--0---------------------|----7h8-8---------|
|--0---------------------|------------------|


|-7-7-------------|------------------|
|-----7h8-8-------|-4h5-4h5----------|
|-----------------|------------------|
|-----------5h6-6-|---------1h2-1h2--|
|-----------------|------------------|
|-----------------|------------------|


|-----------------|-----------------|-------------0---|
|-----------------|-----------------|-0-------2-------|
|-----------------|---------0---1---|-----3-----------|
|---------1-2-1-2-|-3---4-----------|---------1-1-0-0-|
|-----------------|-------------1-1-|-3-3-4-4---------|
|-1-2-1-2---------|-2-2-0-0-4-4-----|-----------------|


|-----3---6---5---|-8---7---10---9---|
|-4---------------|------------------|
|-----1-1-4-4-0-0-|-6-6-0-0--8-8-0-0-|
|-3-3-------------|------------------|
|-----------------|------------------|
|-----------------|------------------|


|-12----11---12----11---|-12----11---12----11----|
|-----------------------|------------------------|
|-10-10--0-0-10-10--0-0-|-10-10--0-0-10-10--0-0--|
|-----------------------|------------------------|
|-----------------------|------------------------|
|-----------------------|------------------------|


|-11-11-11-11-11-11-11-11-|-11-11-11-11-11-11-11-11-|-11-11-11-11---11---11-|
|--0----------------------|-------------------------|-------------9--9-9--9-|
|--0----------------------|-------------------------|-----------------------|
|-11----------------------|-------------------------|-----------------------|
|--8----------------------|-------------------------|-----------------------|
|--8----------------------|-------------------------|-----------------------|


|-----------------|-----------------|-----------------|------------------|
|---9---9---------|-----------------|-----------------|------------------|
|-6-6-6-6---6---6-|-----------------|-----------------|------------------|
|---------4-4-4-4-|---4---4---4---4-|---4---4---4---4-|---5---5---4---4--|
|-----------------|-2-2-2-2-2-2-2-2-|-2-2-2-2-2-2-2-2-|-3-3-3-3-2-2-2-2--|
|-----------------|-----------------|-----------------|------------------|


|-----------------|-----------------|-----------------|------------------|
|-----------------|-----------------|-----------------|------------------|
|-----------------|-----------2---4-|---5---5---5---5-|---4---2---4---2--|
|---5---5---4---4-|---4---5-0-0-2-2-|-3-3-3-3-3-3-3-3-|-2-2-0-0-2-2-0-0--|
|-3-3-3-3-2-2-2-2-|-2-2-3-3---------|-0---------------|------------------|
|-----------------|-----------------|-0---------------|------------------|


|-----------------|-----------------|-----------------|
|-----------------|-----------------|-----------------|
|---5---5---5---5-|---4---2---4---2-|---6---6---6---6-|
|-3-3-3-3-3-3-3-3-|-2-2-0-0-2-2-0-0-|-4-4-4-4-4-4-4-4-|
|-0---------------|-----------------|-0---------------|
|-0---------------|-----------------|-0---------------|


|-----------------|-------------------|
|-----------------|-------------------|
|---5---4---2---0-|-------------------|
|-3-3-2-2-0-0-----|---4---4---4---3---|
|-------------3-3-|-2-2-2-2-2-2-3-3---|
|-----------------|-------------------|


|------------------|-----------------|-----------------|
|------------------|-----------------|-----------------|
|------------------|-----------------|-----------------|
|----4---4---4---3-|---0---0---0---0-|---4---4---4---3-|
|-^2-2-2-2-2-2-3-3-|-4-4-4-4-4-4-4-4-|-2-2-2-2-2-2-3-3-|
|-^2---2---2---3---|-4---4---4---4---|-2---2---2---3---|


|-----------------|-----------------|-----------------|
|-----------------|-----------------|-----------------|
|-----------------|---4---4---4---3-|---0---0---0---0-|
|---0---0---0---0-|---2---2---2---3-|---4---4---4---4-|
|-4-4-4-4-4-4-4-4-|-3-3-3-3-3-3-4-4-|-5-5-5-5-5-5-5-5-|
|-4---4---4---4---|-3---3---3---0---|-5---5---5---5---|


|-----------------|-----------------|-----------------|
|-----------------|-----------------|-----------------|
|---4---4---4---3-|---0---0---0---0-|---0---0---0---0-|
|---2---2---2---3-|---4---4---4---4-|---3---3---3---3-|
|-3-3-3-3-3-3-4-4-|-5-5-5-5-5-5-5-5-|-5-5-5-5-5-5-5-5-|
|-3---3---3---0---|-5---5---5---5---|-4---4---4---4---|


|-----------------|-----------------|-----------------|
|-----------------|-----------------|---3---3---3---3-|
|---0---0---0---0-|---0---0---0---0-|---4---4---4---4-|
|---2---2---2---2-|---2---2---2---2-|-4-4-4-4-4-4-4-4-|
|-5-5-5-5-5-5-5-5-|-5-5-5-5-5-5-5-5-|-2---2---2---2---|
|-3---3---3---3---|-3---3---3---3---|-2---2---2---2---|


|-----------------|-----------------|-----------------|
|---4---4---4---4-|---3---3---3---3-|---0---0---0---0-|
|---5---5---5---5-|---4---4---4---4-|---0---0---0---0-|
|-5-5-5-5-5-5-5-5-|-4-4-4-4-4-4-4-4-|-3-3-3-3-3-3-3-3-|
|-0---0---0---0---|-2---2---2---2---|-3---3---3---3---|
|-0---0---0---0---|-2---2---2---2---|-3---3---3---3---|


|-----------------|-----------------|-----------------|
|---3---3---3---3-|---3---4---4---4-|---4---3---3---3-|
|---4---4---4---4-|---4---5---5---5-|---5---4---4---4-|
|-4-4-4-4-4-4-4-4-|-4-4-5-5-5-5-5-5-|-5-5-4-4-4-4-4-4-|
|-2---2---2---2---|-2---0---0---0---|-0---2---2---2---|
|-2---2---2---2---|-2---0---0---0---|-0---2---2---2---|


|-----------------|-----------------|-----------------|
|---3---0---0---0-|-----------------|-----------------|
|---4---0---0---0-|-----------------|---------4h5-5-5-|
|-4-4-3-3-3-3-3-3-|-----------------|-2h3-3-3---------|
|-2---3---3---3---|---------2h3-3-3-|-----------------|
|-2---3---3---3---|-2h3-3-3---------|-----------------|


|---------7h8-8-8-|-12h13-13-13-12h13-13-13-|
|-5h6-6-6---------|-------------------------|
|-----------------|-------------------------|
|-----------------|-------------------------|
|-----------------|-------------------------|
|-----------------|-------------------------|


|-12h13-13-13-12h13-13-13-|-13--------|
|-------------------------|-12--------|
|-------------------------|--0--------|
|-------------------------|-11--------|
|-------------------------|-12--------|
|-------------------------|--0--------|


|-------------------|-------------------14-14-|-19-19-19-19-19-19-19-19-|
|-------------------|-------12-12-13-13-------|--0----------------------|
|-------------------|-11-11-------------------|-------------------------|
|---------9-9-10-10-|-------------------------|-------------------------|
|-----9-9-----------|-------------------------|-------------------------|
|-9-9---------------|-------------------------|-------------------------|


|-19--19-19-19-19-19-19-19-|-19----------|-^2--------|-----------*|
|-(0)----------------------|--0----12----|-^1--------|-----------*|
|--------------------------|-------------|-^0--------|-^4--------*|
|--------------------------|-------------|-----------|-^4--------*|
|--------------------------|-------------|-^2--------|-^2--------*|
|--------------------------|-------------|-----------|-----------*|

            
            
Suggest correction
Creating personal tab
Creating personal tab
You can edit any tab online and save it as your Personal.

You can edit, replace or remove any tab part or add personal notes – all changes will be seen only by you.

Personal tabs can be accessed anytime from any device, even offline.
Learn more »
Give kudos to tab author, rate the tab!
1 2 3 4 5
comments
print report bad tab
guest
You may want to rate the tab now too:
select rating
Wanna post a correction for this tab? Suggest correction