Oops, an error
Loading. Please wait.

Everybody Got Their Something Tab

3,461 views 9 this week
1 commentread comment
1 2 3 4 5
please rate
add to favorites
launch autoscroll
font size
0
reset
how to read this tab
guitar tuner
Autoscroll
slow
fast
+/-
esc
set tempo
stop
Help us to improve Ultimate-Guitar.com Take our survey!
×
who got the funk? Nikka Costa got the funk:
anywayZ here's the tab
(this looks long but it isn't)

e------------------------------------------------|
g-22222222---------------------------------------|
b---------4444-----------------------------------|
d-------------4444-------------------------------|
a-----------------2-2-2-2-2-0-2-4-2-2-2-0-2-4-4-4|
e------------------------------------------------|
repeat but the end is a little different
(*I know the end is not exactly right but I)
(tried and tried to figure it out..it works)
(ok for me and I hope it works for you)
(I'm sure you're smart you'll figure it out)
e-------------------------------------------------|
g-22222222----------------------------------------|
b---------4444------------------------------------|
d-------------4444--------------------------------|
a-----------------2-2-2-2-2-0-2-*4-4-4-4-0-4-0-2-4|
e-------------------------------------------------|
That's it!! oh yeah and on one 
of my other Nikka tabs
(Push and Pull)when I tabbed 
it my guitar was tuned 
down too much sooo take the capo 
fret one off or hell leave it on
what ever floats your boat
thanks
jessy
e-mail
commments? questions?
sombs999@aol.com
Suggest correction
Give kudos to tab author, rate the tab!
1 2 3 4 5
comments
print report bad tab
1 comment total.
0 reply
Randomer1 47 wrote on June 10 2008, 02:13 pm

i think the first bar is more like this. after that it does change though
e--------------------------------------------------|
g-22222222-----------------------------------------|
b---------4444-------------------------------------|
d--------------4444-2-2-2-2-2--2-4-2-2-2--2-4-4-4--|
a----------------------------4----------4----------|
e--------------------------------------------------|

guest
You may want to rate the tab now too:
select rating
Please do not post tabs as comments. Select "correction" instead!