Oops, an error
Loading. Please wait.

Everybodys Got Their Something Bass Tab

2,701 views 3 this week
1 commentread comment
1 2 3 4 5
x 3
add to favorites
launch autoscroll
font size
0
reset
guitar tuner
Autoscroll
slow
fast
+/-
esc
set tempo
stop
Help us to improve Ultimate-Guitar.com Take our survey!
×
Difficulty
novice
"Everybody's Got Their Something" by Nikka Costa
Bass Tabs

HIGH:
G-------9-10-11-11---------9-8-7-7------------------------------------------------(Repeat)-|
D-11-11------------7-8-9-9-----------------------------------------------9-9-9-10-(11)(11)-|
A----------------------------------11-11-12-12-12-12-12-12-12-11-9-9-9-9-------------------|
E------------------------------------------------------------------------------------------|

LOW:
G--------------------------------------------------------------------------|
D-----2-3-4-4---------2-1-0-0-------------------------------------(Repeat)-|
A-4-4---------0-1-2-2-------------------------------------2-2-2-3-(4)(4)---|
E-----------------------------4-4-5-5-5-5-5-5-5-4-2-2-2-2------------------|
Suggest correction
Give kudos to tab author, rate the tab!
1 2 3 4 5
comments
print report bad tab
1 comment total.
0 reply
Chili Pepper 17 71 Jun 30, 2007 03:56 PM

great tab

guest
You may want to rate the tab now too:
select rating
Wanna post a correction for this tab? Suggest correction