Oops, an error
Loading. Please wait.

Mírame Bass Tab

version 1
version 1

Whole song

Interactive

777 views 1 this week
no commentswrite comment
1 2 3 4 5
please rate
add to favorites
launch autoscroll
font size
0
reset
guitar tuner
Autoscroll
slow
fast
+/-
esc
set tempo
stop
Help us to improve Ultimate-Guitar.com Take our survey!
×
Author
Intro:

G----------------|
D----------------|
A----------------|  X 2
E--2-22----------|
B-------2-22-----|


Verso:
Yeah yeah
Ya no se ni que hacer para que te fijes
Me aparezco donde estés para que me mires
Me muero por ti y tú ni me ves
Me va a enloquecer tu forma de ser

G----------------|
D----------------|
A--------4-44----|  X 2
E--2-22----------|
B----------------|

Inicio del coro:
No me ves...

G-----------------|
D-----------------|
A-----------------|
E-0-2-0-22-33-----|
B-----------------|


Coro:
Mírame, Mírame
Que no ves
Traigo a otros al revés
Pero tú ni me ves
Mírame, Mírame
Que no ves
Que me tienes a tus pies
Por favor mírame
Tan solo mírame

G-----------------------|
D-----------------------|
A-----------------------| X 6
E-4444-0000-2222--------|
B-----------------4444--|


Verso:
Tus amigos me gane y de qué me sirve
Soy más dulce que la miel
Y con otras ríes
Me va a enloquecer tu forma de ser
Me muero por ti y tú ni me ves

G----------------|
D----------------|
A--------4-44----|  X 6
E--2-22----------|
B----------------|

Inicio del coro:
No se que hacer...

G-----------------|
D-----------------|
A-----------------|
E-0-2-0-22-33-----|
B-----------------|

Coro:
Mírame, Mírame
Que no ves
Traigo a otros al revés
Pero tu ni me ves
Mírame, Mírame
Que no ves
Que me tienes a tus pies
Por favor mírame
Tan solo mírame
(Te quiero, te quiero)
Tan solo mírame
(Contigo me veo)
Tan solo mírame
(Perderte no puedo)
Tan solo mírame
(Conmigo te quiero)

G-----------------------|
D-----------------------|
A-----------------------| X 8
E-4444-0000-2222--------|
B-----------------4444--|

Interludio:
Tener tu amor
Sería mejor
Así, sin ti
Me siento morir

G-------------------|
D-------------------|
A--2----------------| X 2
E-----0--4--2-------|
B-------------------|


Inicio del coro:
Y no se que hacer
Tú no me ves

G-----------------|
D-----------------|
A-----------------|
E-0-2-0-22-33-----|
B-----------------|

Coro (y solo, con esto mismo termina la rola)
Mírame, Mírame
Que no ves
Traigo a otros al revés
Pero tú ni me ves
Mírame, Mírame
Que no ves
Que me tienes a tus pies
Por favor mírame
Tan solo mírame
(Te quiero, te quiero)
Tan solo mírame
(Contigo me veo)
Tan solo mírame
(Perderte no puedo)
Tan solo mírame
(Conmigo te quiero)

G-----------------------|
D-----------------------|
A-----------------------| X 16
E-4444-0000-2222--------|
B-----------------4444--|
Suggest correction
Give kudos to tab author, rate the tab!
1 2 3 4 5
comments
print report bad tab
guest
You may want to rate the tab now too:
select rating
Please do not post tabs as comments. Select "correction" instead!