Oops, an error
Loading. Please wait.

Lock-Sport-Krock tab

3,542 views 3 this week
3 commentsread comments
1 2 3 4 5
1 last vote to show rating
add to favorites
×
Save as Personal and add changes to this tab that will be seen only by you. Learn more ›
×
You can save this tab as Personal to edit and correct it or add notes. All changes will be seen only by you. Learn more »
launch autoscroll
font size
0
reset
how to read this tab
guitar tuner
edit
Autoscroll
slow
fast
+/-
esc
set tempo
stop
Difficulty
intermediate
A great song by Nikola Sarcevic dedicated to his brother Miodrag who went missing, from 
album: Lock-Sport-Krock

This is my first ever tab and I dont know if its 100% correct but it sounds pretty spot on.

PLEASE E-MAIL ME AND LET ME KNOW WHAT YOU THINK: tennis_pro711@hotmail.com

Standard tuning, No capo.

Tabbed by David Mann 24-12-2006

REPEAT THIS FOR THE WHOLE SONG:

E-----0----0---0----------0----0---0--0---|
B-----1----1---1----------1----1---1--1---|
G-----0----0---0----------0----0---2--0---|
D-----2-0h2----0----------2-0h2--3----2---|
A---3----------2---0-2-3-0----------------|
E------------3----3-----------------------|

            
            
Suggest correction
Creating personal tab
Creating personal tab
You can edit any tab online and save it as your Personal.

You can edit, replace or remove any tab part or add personal notes – all changes will be seen only by you.

Personal tabs can be accessed anytime from any device, even offline.
Learn more »
Give kudos to tab author, rate the tab!
1 2 3 4 5
comments
print report bad tab
3 comments total.
-1 reply
macterror 175 Jan 16, 2007 05:21 AM

Lock-sport-krock Tab by Nikola Sarcevic

I have another picking version. It sounds much better. Have fun and do this the whole song.


E-----0-----------3-----------0-----------1--------|
B-----1-----------0-----------1-----------1--------|
G-----0-----0-----0-----------2-----------2--------|
D-----2-0h2-------0-----0-----2-0h2-0---3----2--0--|
A---3-------------2-0h2-----0----------------------|
E---------------3----------------------------------|


VERSE 1:

It's been a tough time for you
But I've never seen you cry
The last time that I saw you
I never got to say goodbye
You're the reason I am living
And to you I owe a lot
And I'm happy for what you've given
You're everything I've got
You're everything I've got


VERSE 2:

I haven't done much for you
And I'm afraid I never will
Didn't tell you that I'm sorry
For the part of you I killed
You're the reason I am living
And to you I owe a lot
And I'm happy for what you've given
You're everything I've got
You're everything I've got


VERSE 3:

There were times when I did hate you
And I wished that you were dead
But I tried to valuate you
And see the good in you instead
You're the reason I am living
And to you I owe a lot
And I'm happy for what you've given
You're everything I've got
You're everything I've got

Oh I miss you
I always will
I love you still, brother

Oh I miss you
I always will
I love you still, brother

0 reply
dave711 10 Feb 27, 2007 11:45 PM

pffft I dont care if you think yours sounds better. The point is thats not the way the song is played.
I screwed up in the tab i posted but this is my final tab:

E-----0----0---3----------0----0---0----0---|
B-----1----1---3----------1----1---1----1---|
G-----0----0---0----------0----0---2----0---|
D-----2-0h2----0----------2-0h2--3----2-----|
A---3----------2---0-2-3-0------------------|
E------------3----3-------------------------|

0 reply
slug 92 Aug 15, 2008 04:21 PM

Yeah, that last attempt is spot on dave711. Cheers.

guest
Wanna post a correction for this tab? Suggest correction