Oops, an error
Loading. Please wait.

Iskander Dhul Karnon Tab

by Nile
1,813 views 1 this week
no commentswrite comment
1 2 3 4 5
3 more votes to show rating
add to favorites
launch autoscroll
font size
0
reset
how to read this tab
guitar tuner
Autoscroll
slow
fast
+/-
esc
set tempo
stop
Help us to improve Ultimate-Guitar.com Take our survey!
×
Author
Difficulty
Tuning
intermediate
A E A D F# B
Band: Nile
Song: Iskander D'hul Karnon
Album: Those Whom The Gods Detest
Tuning: AEADF#B

Just the section from 1:36 to 2:57, might do the rest later.

Legend:

. - Palm Mute
/ - Slide Up To
~ - Vibrato

1:36

x4

|-----------------------------------|
|-----------------------------------|
|---------------9---/12-12---11--9--|
|---------------7---/10-10---9---7--|
|--6--7-7--7----7---/10-10---9---7--|
|--6--7-7--7----7---/10-10---9---7--|
   .  . .  .    

|-----------------------------------|
|-----------------------------------|
|----------------/9---8--8----------|
|----------------/7---6--6----------|
|--6--7-7--7--7--/7---6--6----------|
|--6--7-7--7--7--/7---6--6----------|
   .  . .  .  . 

|-----------------------------------|
|-----------------------------------|
|---------------9---/12-12---11--9--|
|---------------7---/10-10---9---7--|
|--6--7-7--7----7---/10-10---9---7--|
|--6--7-7--7----7---/10-10---9---7--|
   .  . .  .  


|-----------------------------------|
|-----------------------------------|
|-----------------------------------|
|--10--10---9--9---7--7---6----/13--|
|--8---8----7--7---5--5---4----/11--|
|--10--10---9--9---7--7---6----/13--|
                      .   .

2:31

x2

|-----------------------------------|
|-----------------------------------|
|--9~9~--8~8~--5~5~-----------------|
|--7~7~--6~6~--3~3~-------2------1--|
|----------------------2--2---1--1--|
|----------------------2--2---1--1--|
                       .      .

|-----------------------------------|
|-----------------------------------|
|--9~9~--8~8~--5~5~-----------------|
|--7~7~--6~6~--3~3~-------2------6--|
|----------------------2--2---6--6--|
|----------------------2--2---6--6--|
                       .      .
Suggest correction
Give kudos to tab author, rate the tab!
1 2 3 4 5
comments
print report bad tab
guest
You may want to rate the tab now too:
select rating
Wanna post a correction for this tab? Suggest correction