Oops, an error
Loading. Please wait.

The Blessed Dead bass

version 1
version 1

Whole song

Interactive

by Nile
1,554 views 3 this week
no commentswrite comment
1 2 3 4 5
2 more votes to show rating
add to favorites
×
Save as Personal and add changes to this tab that will be seen only by you. Learn more ›
×
You can save this tab as Personal to edit and correct it or add notes. All changes will be seen only by you. Learn more »
launch autoscroll
font size
0
reset
guitar tuner
edit
Autoscroll
slow
fast
+/-
esc
set tempo
stop
D||-------------------|--------------------|-------------------|
A||-------------------|--------------------|-------------------|
E||-------------------|--------------------|-------------------|
A||--0----------------|--11----------------|--0----------------|


                                                               
--------------------|------------------|----------------------|
--------------------|------------------|----------------------|
--------------------|------------------|----------------------|
--11----------------|------------------|----------7--6--4--3--|


                                                                  
------------------------------|----------------------------------|
------------------------------|----------------------------------|
------------------------------|----------------------------------|
--0----1----4----0-1-4--5--4--|--8-8-8-8-8-8-7-7-7-7-7-7-8-8-8-8-|


                                                                              
-------------------|-------------------|------------------|------------------|
-------------------|-------------------|------------------|------------------|
-------------------|-------------------|------------------|------------------|
--5----------------|--0----------------|------------------|------------------|


                                                                          
|-----------------------------------|-----------------------------------||
|*----------------------------------|----------------------------------*||
|*----------------------------------|----------------------------------*||
|---0-0-0-0-8-8-8-8-7-7-7-7-0-0-0-0-|--8-8-8-8-7-7-7-7-5-5-5-5-4-4-4-4--||


                                                                   
----------------------------------|-------------------------------|
----------------------------------|-------------------------------|
----------------------------------|-------------------------------|
--0-0-0-0-8-8-8-8-7-7-7-7-0-0-0-0-|--8-8-8-8-7-7-7-7-7--10--10----|


                                                           
----------------------------------|-----------------------|
----------------------------------|-----------------------|
----------------------------------|-----------------------|
--0-0-0-0-8-8-8-8-7-7-7-7-0-0-0-0-|--10----9----7----6----|


                                                                          
|-----------------------------------|-----------------------------------||
|*----------------------------------|----------------------------------*||
|*----------------------------------|----------------------------------*||
|---0-0-0-0-8-8-8-8-7-7-7-7-0-0-0-0-|--8-8-8-8-7-7-7-7-5-5-5-5-4-4-4-4--||


                                                                     
--------------------------------||----------------------------------|
-------------------------------*||----------------------------------|
-------------------------------*||----------------------------------|
--8-8-8-8-7-7-7-7-7--10--10-----||--8-8-8-8-7-7-7-7-5-5-5-5-4-4-4-4-|


                                                                 
---------------------------------||-----------------------------|
--7----8----7--------------------||*----------8----7------------|
-----------------10----9----9----||*----------------------------|
---------------------------------||---0-0-0-0-----------0-0-0-0-|


                                                                       
-----------------------------------||--------------------------------||
--8-8-8-8-7-7-7-7-5-5-5-5-4-4-4-4-*||-------------------------------*||
----------------------------------*||-------------------------------*||
-----------------------------------||--8-8-8-8-7-7-7-7-7--10--10-----||


                                                                             
----------------------------------|--------------------|--------------------|
--8-8-8-8-7-7-7-7-5-5-5-5-4-4-4-4-|--12----------------|--11----------------|
----------------------------------|--------------------|--------------------|
----------------------------------|--------------------|--------------------|


                                                                            
----------------------------------|-------------------|--------------------|
----------------------------------|-------------------|--------------------|
----------------------------------|-------------------|--------------------|
--0-0-0-0-0-0-0-0-0-0-0-0-0-0-0-0-|--0----------------|--0--------2--------|


                                                                                
-------------------||-----------------------------|---------------------------||
-------------------||*----------8----7------------|--8----7----10--11--10----*||
--5----------------||*----------------------------|--------------------------*||
-------------------||---0-0-0-0-----------0-0-0-0-|---------------------------||


                                                                             
-----------------------||---------------------------||----------------------|
--8----7----5----4----*||--8----7----10--11--10----*||--8----7----5----4----|
----------------------*||--------------------------*||----------------------|
-----------------------||---------------------------||----------------------|


                                                                               
-------------------|------------------|-------------------|-------------------|
-------------------|------------------|-------------------|-------------------|
--6----------------|------------------|--5----------------|--4----------------|
-------------------|------------------|-------------------|-------------------|


                                                                            
----------------------------------|-------------------|--------------------|
----------------------------------|-------------------|--------------------|
----------------------------------|-------------------|--------------------|
--0-0-0-0-0-0-0-0-0-0-0-0-0-0-0-0-|--0----------------|--0--------2--------|


                                                          
-------------------|------------------|------------------|
-------------------|------------------|------------------|
--5----------------|------------------|------------------|
-------------------|------------------|------------------|


                                                                                
|---------------------|--------------------||----------------------------------|
|*--------------------|-------------------*||----------------------------------|
|*---------------5----|--4----------------*||--5-5-5-5-5-5-5-5-6-6-5-5-6-6-5-5-|
|---0-----------------|--------------------||----------------------------------|


                                                                        
----------------------------------||-----------------------------------|
----------------------------------||*----------------------------------|
--5-5-5-5-5-5-6-6-5-5-9-9-8-8-9-9-||*--5-5-5-5-5-5-5-5-6-6-5-5-6-6-5-5-|
----------------------------------||-----------------------------------|


                                                                   
-----------------------------------||-----------------------------|
----------------------------------*||-----------------------------|
--5-5-5-5-5-5-6-6-5-5-9-9-8-8-9-9-*||--5-5-5-5-5-5-6--5--9--8--9--|
-----------------------------------||-----------------------------|


                                                  3x
|-----------------------|-------------------------||
|*----------------------|------------------------*||
|*----------------------|------------------------*||
|---0----6--5--6--------|--0--5--9----9--8--8-----||


                                                          
--------------------------------||-----------------------|
--------------------------------||*----------------------|
--5----6----5-------------------||*----------------------|
-----------------8----7----7----||---0----6--5--6--------|


                         3x                         
-------------------------||------------------------|
------------------------*||------------------------|
------------------------*||------------------------|
--0--5--9----9--8--8-----||--4--0-0-0--1--0--------|


                                                          
--------------------------------|------------------------|
--------------------------------|------------------------|
--------------------------------|------------------------|
--0-0-0-0-1-1-4-4-4-4-0-0-1-1---|--4--0-0-0--1--0--------|


                                                  
------------------------|------------------------|
------------------------|------------------------|
------------------------|------------------------|
--4--5--4----4--3--3----|--4--0-0-0--1--0--------|


                                                          
--------------------------------|------------------------|
--------------------------------|------------------------|
--------------------------------|------------------------|
--0-0-0-0-1-1-4-4-4-4-0-0-1-1---|--4--0-0-0--1--0--------|


                                                
----------------------|------------------------|
----------------------|------------------------|
----------------------|------------------------|
--2--3--2----1--------|--4--0-0-0--1--0--------|


                                                          
--------------------------------|------------------------|
--------------------------------|------------------------|
--------------------------------|------------------------|
--0-0-0-0-1-1-4-4-4-4-0-0-1-1---|--4--0-0-0--1--0--------|


                                                                              
-----------------------|---------------------------|-------------------------|
-----------------------|---------------------------|-------------------------|
-----------------------|---------------------------|-------------------------|
--10--9------7--6------|--0--0--10--9--10----0--0--|--9--10--9----6--7--6----|


                                                       
---------------------------|--------------------------|
---------------------------|--------------------------|
---------------------------|--------------------------|
--0--0--10--9--10----0--0--|--9--10------9--12--13----|


                                                      
---------------------------|-------------------------|
---------------------------|-------------------------|
---------------------------|-------------------------|
--0--0--10--9--10----0--0--|--9--10--9----6--7--6----|


                                                       
---------------------------|--------------------------|
---------------------------|--------------------------|
---------------------------|--------------------------|
--0--0--10--9--10----0--0--|--9--10------9--12--13----|


                                                     
---------------------------|------------------------|
---------------------------|------------------------|
---------------------------|------------------------|
--0--0--10--9--10----0--0--|--9--10--9----7--6------|


                                                                      
----------------------------------|----------------------------------|
----------------------------------|----------------------------------|
----------------------------------|----------------------------------|
--0-0-0-0-8-8-8-8-7-7-7-7-0-0-0-0-|--8-8-8-8-7-7-7-7-5-5-5-5-4-4-4-4-|


                                                                      
----------------------------------|----------------------------------|
----------------------------------|----------------------------------|
----------------------------------|----------------------------------|
--0-0-0-0-8-8-8-8-7-7-7-7-0-0-0-0-|--8-8-8-8-7-7-7-7-5-5-5-5-4-4-4-4-|


                                                                      
----------------------------------|----------------------------------|
----------------------------------|----------------------------------|
----------------------------------|----------------------------------|
--0-0-0-0-8-8-8-8-7-7-7-7-0-0-0-0-|--8-8-8-8-7-7-7-7-5-5-5-5-4-4-4-4-|


                                                                      
----------------------------------|----------------------------------|
----------------------------------|----------------------------------|
----------------------------------|----------------------------------|
--0-0-0-0-8-8-8-8-7-7-7-7-0-0-0-0-|--8-8-8-8-7-7-7-7-5-5-5-5-4-4-4-4-|


                                                                
---------------------------------|-----------------------------|
--7-8-7--5-4---------------------|--8--7------8--7--7--11--10--|
---------------------------------|-----------------------------|
-------------5-4-1-1-1-1-0-0-0-0-|--------0-0------------------|


                                                              
--------------------------|----------------------------------|
--------8----7------------|----------------------------------|
--------------------------|----------------------------------|
--0-0-------------1-1-1-1-|--0-0-0-0-8-8-8-8-7-7-7-7-0-0-0-0-|


                                                                      
----------------------------------|----------------------------------|
----------------------------------|----------------------------------|
----------------------------------|----------------------------------|
--8-8-8-8-7-7-7-7-5-5-5-5-4-4-4-4-|--0-0-0-0-8-8-8-8-7-7-7-7-0-0-0-0-|


                                                                      
----------------------------------|----------------------------------|
----------------------------------|----------------------------------|
----------------------------------|----------------------------------|
--8-8-8-8-7-7-7-7-5-5-5-5-4-4-4-4-|--0-0-0-0-8-8-8-8-7-7-7-7-0-0-0-0-|


                                                                      
----------------------------------|----------------------------------|
----------------------------------|----------------------------------|
----------------------------------|----------------------------------|
--8-8-8-8-7-7-7-7-5-5-5-5-4-4-4-4-|--0-0-0-0-8-8-8-8-7-7-7-7-0-0-0-0-|


                                                                          
----------------------------------|-------------------|------------------|
----------------------------------|-------------------|------------------|
----------------------------------|--3----------------|------------------|
--8-8-8-8-7-7-7-7-5-5-5-5-4-4-4-4-|-------------------|------------------|


                                                                  
------------------|------------------|---------------------------|
------------------|------------------|---------------------------|
------------------|------------------|---------------------------|
------------------|------------------|--0--0--10--9--10----0--0--|


                                                      
-------------------------|---------------------------|
-------------------------|---------------------------|
-------------------------|---------------------------|
--9--10--9----6--7--6----|--0--0--10--9--10----0--0--|


                                                       
--------------------------|---------------------------|
--------------------------|---------------------------|
--------------------------|---------------------------|
--9--10------9--12--13----|--0--0--10--9--10----0--0--|


                                                      
-------------------------|---------------------------|
-------------------------|---------------------------|
-------------------------|---------------------------|
--9--10--9----6--7--6----|--0--0--10--9--10----0--0--|


                                                                   
--------------------------|--------------------|------------------|
--------------------------|--------------------|------------------|
--------------------------|--------------------|------------------|
--9--10------9--12--13----|--12----------------|------------------|


                                                                            
------------------|------------------||-----------------------------------||
------------------|------------------||*--8-8-7-7-5-5-4-4-5-5-4-5-4------*||
------------------|------------------||*-----------------------------6---*||
------------------|------------------||--------------------------------0--||


                                                                    
----------6-6--------------------|---------------------------------|
--8-8-7-7-----8-8-7-7-5-7-5--4---|--8-8-7-7-5-5-4-4-5-5-4-5-4------|
---------------------------------|-----------------------------6---|
-------------------------------0-|-------------------------------0-|


                                                                          
|-----------------------------------|-----------------------------------||
|*----------------------------------|----------------------------------*||
|*----------------------------------|----------------------------------*||
|---0-0-0-0-8-8-8-8-7-7-7-7-0-0-0-0-|--8-8-8-8-7-7-7-7-5-5-5-5-4-4-4-4--||


                                                                     
--------------------------------||----------------------------------|
-------------------------------*||----------------------------------|
-------------------------------*||----------------------------------|
--8-8-8-8-7-7-7-7-7--10--10-----||--8-8-8-8-7-7-7-7-5-5-5-5-4-4-4-4-|


                                                                
--------------------------------||-----------------------------|
--7----8----7----5----4----4----||*----------8----7------------|
--------------------------------||*----------------------------|
--------------------------------||---0-0-0-0-----------0-0-0-0-|


                                                                          
-----------------------||------------------------||----------------------|
--8----7----5----4----*||--8----7----7----10----*||--8----7----5----4----|
----------------------*||-----------------------*||----------------------|
-----------------------||------------------------||----------------------|


                                                                             
--------------------|--------------------|----------------------------------|
--12----------------|--11----------------|----------------------------------|
--------------------|--------------------|----------------------------------|
--------------------|--------------------|--0-0-0-0-0-0-0-0-0-0-0-0-0-0-0-0-|


                                                             
-------------------|--------------------|-------------------|
-------------------|--------------------|-------------------|
-------------------|--------------------|--5----------------|
--0----------------|--0--------2--------|-------------------|


                                                            
|-----------------------------|---------------------------||
|*----------8----7------------|--8----7----10--11--10----*||
|*----------------------------|--------------------------*||
|---0-0-0-0-----------0-0-0-0-|---------------------------||


                                                                             
-----------------------||---------------------------||----------------------|
--8----7----5----4----*||--8----7----10--11--10----*||--8----7----5----4----|
----------------------*||--------------------------*||----------------------|
-----------------------||---------------------------||----------------------|


                                                                               
-------------------|------------------|-------------------|-------------------|
-------------------|------------------|-------------------|-------------------|
-------------------|------------------|--5----------------|--4----------------|
--1----------------|------------------|-------------------|-------------------|


                                                                            
----------------------------------|-------------------|--------------------|
----------------------------------|-------------------|--------------------|
----------------------------------|-------------------|--------------------|
--0-0-0-0-0-0-0-0-0-0-0-0-0-0-0-0-|--0----------------|--0--------2--------|


                                                              
-------------------|------------------|----------------------|
-------------------|------------------|----------------------|
--5----------------|------------------|----------------------|
-------------------|------------------|----------7--6--4--3--|


                                                                
|---------------------|-------------------|--------------------|
|*--------------------|-------------------|--------------------|
|*---------------5----|--4----------------|---------------5----|
|---0-----------------|-------------------|--0-----------------|


                                                    
--------------------||-----------------------------|
-------------------*||*----------8----7------------|
--4----------------*||*----------------------------|
--------------------||---0-0-0-0-----------0-0-0-0-|


                                                      
---------------------------||-----------------------||
--8----7----10--11--10----*||--8----7----5----4----*||
--------------------------*||----------------------*||
---------------------------||-----------------------||


                                                                       
---------------------------||----------------------|------------------|
--8----7----10--11--10----*||--8----7----5----4----|------------------|
--------------------------*||----------------------|------------------|
---------------------------||----------------------|------------------|


                                                                
----------------------|-------------------|--------------------|
----------------------|-------------------|--------------------|
----------------------|-------------------|--------------------|
----------7--6--4--3--|--0----------------|--0----0------------|


                                                             
-------------------|--------------------|-------------------|
-------------------|--------------------|-------------------|
-------------------|--------------------|-------------------|
--0----------------|--0----0------------|--0----------------|


                      
--------------------||
--------------------||
--------------------||
--0----0------------||
Suggest correction
Creating personal tab
Creating personal tab
You can edit any tab online and save it as your Personal.

You can edit, replace or remove any tab part or add personal notes – all changes will be seen only by you.

Personal tabs can be accessed anytime from any device, even offline.
Learn more »
Give kudos to tab author, rate the tab!
1 2 3 4 5
comments
print report bad tab
guest
You may want to rate the tab now too:
select rating
Wanna post a correction for this tab? Suggest correction