Oops, an error
Loading. Please wait.

5 Minutos tab

by Nina
59 views 3 this week
no commentswrite comment
1 2 3 4 5
3 more votes to show rating
add to favorites
×
Save as Personal and add changes to this tab that will be seen only by you. Learn more ›
×
You can save this tab as Personal to edit and correct it or add notes. All changes will be seen only by you. Learn more »
launch autoscroll
font size
0
reset
how to read this tab
guitar tuner
edit
Autoscroll
slow
fast
+/-
esc
set tempo
stop
WWoooola otra vez aqi les mando 5 minutos de niña,
spero y les guste es mi tercer transcripcion y esta un 90%
correcta, alguna duda o aclaracion o para pedirme alguna
otra cancion les dejo mi correo The_strokes_fussion@

Intro (también lleva este riff en las estrofas)
E|----------------------------------|
A|----------------------------------|
D|-6/7-7-9---7-9-7--7-9-7-9-7-6-7---|
G|----6-----------9-----------------|
B|----------------------------------|
E|----------------------------------|se repite

Este riff también lo lleva en el intro

E|-----------------------------------------|
A|-----------------------------------------|
D|-----------------------------------------|
G|-7/9---------------------9---------------|
B|----10-----10/12---12/10--10-----10/12---|
E|------10-9------------------10-9---------|

A-F#m-D-E-riff intro
Cinco minutos el tiempo pasa en cuenta
Regresiva hacia el momento en donde todo
se termina gracias a tus sueños tan vacíos,
Que fueran llenados por la televisión,
quien te dice cuantas calorías debes tomar,
tu ropa tu pensar tu película favorita.

-distor- A5-F#m5-D5-E5
Mientras tu papa se escapa con otra mujer
Esperamos la respuesta el martes a las nueve
A la hora de cenar, y quien te dice ahora
como funcionar los platos caen de la mesa
y vuelan tus esperanzas hacia el cielo y te
vuelves a formar en la fila.

F#m5-D5-A5-E5
Por que no hay nadie en el mundo como yo?
Estoy cansado de verte en televisión

--solo--(va trinado)
E|--------------------------------|
A|--------------------------------|
D|--------------------------------|
G|--------------------------------|
B|--9-10-12--------12-10-9-9*10-9-|
E|---------12-10-9----------------|x2
--Puente-- nunca voltees atrás!
E|-----------------------------|
A|-----------------------------|
D|--7-7-9-7-9-7-7-9-7-9-7------|
G|---6---------9---------6-----|
B|-----------------------------|
E|-----------------------------|

A5-F#m5-D5-E5
Vive con tus ojos hacia el cielo, oh! hacia el cielo
Vive con tus ojos hacia el cielo, no hacia el suelo
--(Arpegio) (entra la segunda voz diciendo lo mismo)--
Vive con tus ojos hacia el cielo, no hacia el suelo


--Arpegio--
   A               F#m
E|--5-------5-------2-------------|
A|--------------------------------|
D|--------------------------------|
G|---6---6---6---6---2---2--------|
B|----5-5-----5-5-----2-2---------|
E|-----5-------5-------2---7/9----|

    D                           E
E|--10-----------10-------------12-----------------------|
A|-------------------------------------------------------|
D|----12-----------12-------------14---------------------|
G|------11----11-----11----11-------13----13-----13------|
B|----------10-----------10-------------12-----12--------|
E|--------10-----------10-------------12-----12-----12---|

-arpegio
*riff
G|-9/7--7/6--6/4--4/2--2/4--4/6--6/7--7-6-6-9-9-9?---|x2
Vive con tus ojos hacia el suelo, no hacia el suelo
E5-D5-A5
 Creo que acaba así:
                          E|---------------|
                          A|--7--6--5------|
                          D|--7--6--7------|
                          G|--6--6--7------|
                          B|---------------|
                          E|---------------|
Suggest correction
Creating personal tab
Creating personal tab
You can edit any tab online and save it as your Personal.

You can edit, replace or remove any tab part or add personal notes – all changes will be seen only by you.

Personal tabs can be accessed anytime from any device, even offline.
Learn more »
Give kudos to tab author, rate the tab!
1 2 3 4 5
comments
print report bad tab
guest
Wanna post a correction for this tab? Suggest correction