Oops, an error
Loading. Please wait.

Foolish Heart Tab

version 3
version 3

Whole song

by Nina
83,880 views 141 this week
2 commentsread comments
1 2 3 4 5
x 25
add to favorites
launch autoscroll
font size
0
reset
how to read this tab
guitar tuner
Autoscroll
slow
fast
+/-
esc
set tempo
stop
Author
Foolish Heart ( by Nina )

tabbed by: ( Pi2plank ) pi_hermoso@yahoo.com

[Intro]

e|---------2------------2------------2--------------------------|
B|-----4---4--------2---2--------0---0---------2----------2-----|
G|-----4------------3------------1-------------3-----4----------|
D|--------------------------------------------------------------|
A|--------------------------------------------------------------|
E|-----0------------0------------0-------------0----------------|
             ^            ^            ^

e|---------2------------2------------2--------------------------|
B|-----4---4--------2---2--------0---0---------2------0h2p0-----|
G|-----4------------3------------1-------------3----------------|
D|--------------------------------------------------------------|
A|--------------------------------------------------------------|
E|-----0------------0------------0-------------0----------------|
             ^            ^            ^

e|---------2------------2------------2--------------------------|
B|-----4---4--------2---2--------0---0---------2----------2-----|
G|-----4------------3------------1-------------3-----4----------|
D|--------------------------------------------------------------|
A|--------------------------------------------------------------|
E|-----0------------0------------0-------------0----------------|
             ^            ^            ^

e|---------2------------2--------0------------------------(12)--|
B|-----4---4--------2---2--------0------------------------(12)--|
G|-----4------------3------------1------------------------------|
D|-------------------------------1h2----------------------------|
A|-------------------------------2----------------(7)-----------|
E|-----0------------0------------0------------(7)---------------|
             ^            ^


[Verse]

e|---------2------------2------------2--------------------------|
B|-----4---4--------2---2--------0---0---------2----------2-----|
G|-----4------------3------------1-------------3-----4----------|
D|--------------------------------------------------------------|
A|--------------------------------------------------------------|
E|-----0------------0------------0-------------0----------------|
             ^            ^            ^
  I need    a    love  that  grows                 I   don't


e|---------2------------2------------2---------------------2----|
B|-----4---4--------2---2--------0---0---------2--0-2/4---------|
G|-----4------------3------------1-------------3----------------|
D|--------------------------------------------------------------|
A|--------------------------------------------------------------|
E|-----0------------0------------0-------------0----------------|
             ^            ^            ^
    want it   unless  I       know                With  each


e|-----4----2------------------------------------------------------|
B|-----4----4--------------4---------------------0---------4-4-----|
G|-----4----4--------------6----4----------------------4---4-4-----|
D|----------------4\-------6----4---------6----4-------4-----------|
A|-----2----2--------------------------5h6-------------------------|
E|---------------------/4-----0-4----44------4------4--3-------3---|
       ^
   passin hour   Someone,   somehow        Will  be there ,


e|-----------------0-------------2------------2------------2----------------------|
B|---5-------------4h5-4-2---4---4--------2---2--------0---0---------2----------2-|
G|---4-----------4-4-----4---4------------3------------1-------------3-----4------|
D|---4----------------------------------------------------------------------------|
A|--------------------------------------------------------------------------------|
E|---2-----------------------0------------0------------0-------------0------------|
                                  ^            ^            ^
   ready  to  share    I  need    a   love   that's strong              I'm   so


e|---------2------------2------------2---------------------2----|
B|-----4---4--------2---2--------0---0---------2--0-2/4---------|
G|-----4------------3------------1-------------3----------------|
D|--------------------------------------------------------------|
A|--------------------------------------------------------------|
E|-----0------------0------------0-------------0----------------|
             ^            ^            ^
    tired  of   being       alone              But will  my


e|-----4----2-------------------------------------------------------------2--2-|
B|-----4----4----7-6\4---------4--------------------4--------4--4---4--5--5--5-|
G|-----4----4------6\4-4-------4---4----4-----------4--------4--4---4----------|
D|---------------------4-----------4----4--------4------------------4----------|
A|-----2----2-------------------------------------------5h6-4--4---------------|
E|-------------------------4-----0-4--44---4--4-------4------------------------|
        ^
   lonely heart         Play the part   Ofdfool  again,       before I  begin


[Chorus]

e|------------------------2--------------2-2------------------|
B|--------------0---------2--------------4-4---4--------------|
G|---4-------------3---------------------------4--------4\----|
D|------4-------------4---------------------------------------|
A|---------------------------------2h3---2---0-2----2---------|
E|-----------0-------------------0----------------------------|

  Foolish heart,       hear  me       call...ing Stop be..


e|----------------2-------------7-7--------------------|
B|------0---------2-------------7-7---0----------------|
G|---------3--------------------------8----------------|
D|------------4----------------------------------------|
A|-----------------------------------------------------|
E|---0--------------------0-7h8-7---0-7---7--9-7-6-4---|

  fore        you  start     fal..ling  Foolish


e|----------------2------------2-2---/4-2-------------------------------|
B|------0---------2------------4-4---/4-2-2/4-4----------4--------4--4--|
G|---------3----------------------------------4----------4--------4--4--|
D|------------4---------------------------------------4-----------------|
A|-----------------------2h3---2---2------------------------5h6--4--4---|
E|---0-----------------0---------------------------4-------4------------|

 heart,       heed my      war   ning  u'vebeen wrong  before      Don't


e|----------------0----------------|
B|----------------0----------------|
G|------------4--------------------|
D|-------4-------------------------|
A|---------------------------------|
E|--2------------------------------|

  be wrong  a...nymore

************************************

^ = tap
/ = slide up
h = hammer on
()= natural harmonics
\ = slide down
p = pull off

************************************
Suggest correction
comments
print report bad tab
2 comments total.
0 reply
Varsity10? 10 Jul 07, 2006 07:43 PM

yun lang?? mahaba pa yun ah? okie na sana acurate... tinamad ka ba? paki buo naman pls im new in guitar hehehe

0 reply
Utot 20 Jan 20, 2009 11:53 AM

i thought this chord sounds better. up to you.

--0---- -----2----
--0---- -----0----
--1---- to -----1----
--1h2-- -----2----
--2---- -----2----
--0---- -----0----

guest
You may want to rate the tab now too:
select rating
Wanna post a correction for this tab? Suggest correction