Oops, an error
Loading. Please wait.

Steep Tab

version 2
version 2

Intro

Whole song

by Nina
1,120 views 1 this week
no commentswrite comment
1 2 3 4 5
please rate
add to favorites
launch autoscroll
font size
0
reset
how to read this tab
guitar tuner
Tab Pro tools
  • play this tab
  • loop segment
  • change instrument
  • show fretboard
  • metronome
Autoscroll
slow
fast
+/-
esc
set tempo
stop
Contributor
STEEP


Intro:

1|--0-------0----0-0--5-4-2--|------0------0-2------------|
2|----2-2h3---2--------------|--2h3---2--2-------3-2-2-0--|
3|---------------------------|----------------2-----2-----|
4|------------------------0--|----------------------------|
5|--0-------0----------------|------0---------------------|
6|---------------------------|-------------------------0--|


Verse1:  
	A	     A		        D		
1|--0------------0-----------|--0--5-4--2-----------|
2|--------2--2---------2--2--|-----------------3----|
3|------2--2---------2--2----|---------------2---2--|
4|----2------------2---------|-------------0--------|
5|--0------------0-----------|--0-------0-----------|
6|---------------------------|----------------------|
  Softly       gently         I will   let you down…


	A	  Asus
1|--0-----------0-------------------------|
2|--------2--2--------0---0--3--2---2--0--|
3|------2--2--------2---2---------2-------|
4|----2-----------2-----------------------|
5|--0-----------0-------------------------|
6|-------------------------------------0--|
  Coz I don't   love you, In the same way now…	(repeat chords)


  I can hold you, but not with lover's arms…
  Coz you are more of, a brother to me now…



Coda:
	    D	       F#m	B#m	  E
1|--5-4--2-------2---2----------------------------------|
2|-------------3---3---------------------3--------------|
3|-----------2-----------------2-------4---4---------1--|
4|-------0-------------------4-------4-------------2----|
5|-------------------------4-------2-------------2------|
6|-----------------------2---------------------0--------|
   Coz I can lie  next   to you, But I can't lie to you… 




Chorus:

       D		A	  D	    A
1|---------------------------|---------------------------|
2|------3-------------2------|------3-------------2------|
3|----2---2---------2---2----|----2---2---------2---2----|
4|--0-------0-----2-------2--|--0-------0-----2-------2--|
5|--------------0------------|--------------0------------|
6|---------------------------|---------------------------|
   So walk into the sun and   Run into the rain…
		watch me…	              


        D		F#m	E	B#m	E
1|---------------------------------------------------|--0--------0-0----------|
2|------3-------------------------------3------------|----2--2h3-----3-3-2-0--|
3|----2---2---------------------------4---4-------1--|------------2-2-2-------|
4|--0-------0----------4------2-----4-----------2----|------------------------|
5|-------------------4------2-----2-----------2------|--0---------------------|
6|-----------------2------0-----------------0--------|------------------------|
    For you, 
    the future's easy,
		so don't weep… For me, 
			      it's getting steep…


(Do same pattern w/ verse1 chords)

Verse2:
I loved you for 
Exactly who you are… 
And I'd say we've come 
The nearest yet by far… 

Coda
Chorus except last line


        D		A	  F#m	  E
1|---------------------------------------------|
2|------3-------------2------------------------|
3|----2---2---------2---2----------2--------1--|
4|--0-------0-----2-------2------4--------2----|
5|--------------0--------------4--------2------|
6|---------------------------2--------0--------|
   Steeper… From where the
	   dark that's where
		         I want to be… (repeat chords) 

   Steeper… From going somewhere you won't want to see… 


1|--2-0--------------0-0----------|
2|--------2-2h3--2-2---------2-0--|
3|------2----------------2-2------|
4|--------------------------------|
5|--------------------------------|
6|--------------------------------|


        D		A	     D	  	A
1|--------------------------|----------------------------|
2|------3-------------2-----|------3--------------2------|
3|----2---2---------2---2---|----2---2----------2---2----|
4|--0-------0-----2-------2-|--0-------0------2-------2--|
5|--------------0-----------|---------------0------------|
6|--------------------------|----------------------------|
   So walk into the sun and	  Run into the rain…
	         watch me…


        D	    	F#m	E      B#m        
1|------------------------------------------|----------0--|
2|------3------------------------------3----|--------2----|
3|----2---2--------------------------4---4--|------2------|
4|--0-------0---------4------2-----4--------|----2--------|
5|------------------4------2-----2----------|--0----------|
6|----------------2------0------------------|-------------|
   For you, 			        Yes, I will 
   the future's easy,    so don't weep…          watch you…


       D		A	  D	    A
1|---------------------------|---------------------------|
2|------3-------------2------|------3-------------2------|
3|----2---2---------2---2----|----2---2---------2---2----|
4|--0-------0-----2-------2--|--0-------0-----2-------2--|
5|--------------0------------|--------------0------------|
6|---------------------------|---------------------------|
   walk into the sun and      Run into the rain drops…
		watch me…	              


        D		F#m	E	B#m	  E	    D            A
1|-------------------------------------------|--------------------2--------0~--|
2|------3-------------------------------3----|----------------3-----3------2~--|
3|----2---2---------------------------4---4--|--------1-----2---2-----2----2~--|
4|--0-------0----------4------2-----4--------|------2-----0----------------2~--|
5|-------------------4------2-----2----------|----2------------------------0~--|
6|-----------------2------0------------------|--0--------------------------x---|
    For you, 
    the future's easy,    so don't weep…      For me, it's getting steep…
comments
We did not receive enough feedback on this tab! Please rate:
print report bad tab
1 2 3 4 5
I want to post or [tab]
guest
You may want to rate the tab now too:
select rating
Please do not post tabs as comments. Select "correction" instead!