Oops, an error
Loading. Please wait.

Tu Y Yo chords

by Nina
25 views 1 this week
no commentswrite comment
1 2 3 4 5
3 more votes to show rating
add to favorites
×
Save as Personal and add changes to this tab that will be seen only by you. Learn more ›
×
You can save this tab as Personal to edit and correct it or add notes. All changes will be seen only by you. Learn more »
launch autoscroll
font size
0
reset
transpose
0
reset
simplify chords
display chords
guitar tuner
edit
Autoscroll
slow
fast
+/-
esc
set tempo
stop
Strumming
There is no strumming pattern for this song yet. and get +5 IQ
BUENO STA ES MI SEGUNDA TRANSCRIPCION SPERO Q HAYA SALIDO BIEN

Acordes utilizados

A5, B5, C#5, D5, G5


Intro

e -------------------------------------------------------------------
B -------------------------------------------------------------------
G -------6/7-6-----------6/7-6-----------------7---------------------
D -------------7---------------7---------6/7-6-----------------------
A --0-0-------------2-2-------------4-4------------5-5-4-4-0-0-4-----
E -------------------------------------------------------------------


                 A5   B5         C#5
Yo se que nadie mas habla de mí

             D5              A5     B5         C#5     D5
Y no te dejare escapar esta vez eres para mí.

A5                    B5                C#5
Si esta tarde sales a ver el atardecer

             D5
Y la noche se empieza a desvanecer

A5                   B5
Lleva una foto en tu bolsa de tú y yo...

C#5                    D5
Las que tomamos en una maquina.


En esta parte se repite el intro

e -------------------------------------------------------------------
B -------------------------------------------------------------------
G -------6/7-6-----------6/7-6-----------------7---------6/7-6-------
D -------------7---------------7---------6/7-6------------------7----
A --0-0-------------2-2-------------4-4-------------2-2--------------
E -------------------------------------------------------------------

Recuerdas esos momentos en la escuela?


Éramos tan inocentes.


CORO

A5        B5       C#5        D5
Y tu y yo y tu y yo como olvidarlo?

A5        B5       C#5        D5
Y tu y yo y tu y yo como olvidarlo?

VERSO

A5           B5         C#5        D5
...éramos uno caminando al lado del otro...

A5        B5    C#5     D5
Haaaaa ha haaa  Vivimos juntos.

B5     G5         A5
Y cada día quiero dormir y soñar

                        B5
Y cada minuto escapar y sentir

               G5
Que todo es un sueño

      A5
Y que mañana no va a terminar.


EN ESTA PARTE LLEVA PALM MUTE


    A5   B5               C#5     D5                    A5  B5 C#5
Pero tú siempre te ríes de mí, hey yo también me rió de ti

D5              A5   B5          C#5
Yo se que nadie mas habla de mí


              D5           A5      B5        C#5     D5
Y no te dejare escapar esta vez...eres para mi

B5     G5         A5
Y cada día quiero dormir y soñar

                        B5
Y cada minuto escapar y sentir

               G5
Que todo es un sueño

      A5
Y que mañana no va a terminar.


AQUÍ SOLO VA LA GUITARRA

A5-E5-A5-D5 X4


CORO

ESTO SE REPITE VARIAS VECES

      A5   B5
Somos tu y yo...

     C#5   D5
Somos tu y yo...

      A5   B5
Somos tu y yo...

     C#5   D5
Somos tu y yo...

      A5   B5
Somos tu y yo...

   C#5    D5
Como olvidarlo


Y ACABA CON ESTOS ACORDES

A5-B5-C#5-D5-A5

            
            
Suggest correction
Creating personal tab
Creating personal tab
You can edit any tab online and save it as your Personal.

You can edit, replace or remove any tab part or add personal notes – all changes will be seen only by you.

Personal tabs can be accessed anytime from any device, even offline.
Learn more »
Give kudos to tab author, rate the tab!
1 2 3 4 5
comments
print report bad tab
guest
Wanna post a correction for this tab? Suggest correction