Oops, an error
Loading. Please wait.

Lee Tab

223 views 1 this week
no commentswrite comment
1 2 3 4 5
3 more votes to show rating
add to favorites
launch autoscroll
font size
0
reset
how to read this tab
guitar tuner
Autoscroll
slow
fast
+/-
esc
set tempo
stop
Help us to improve Ultimate-Guitar.com Take our survey!
×
Author
Chords used:

    B   A   G   F#  D   E   C
e|--0---0---0---0---x---x---x---|
B|--0---0---0---0---x---x---x---|
G|--8---6---4---3---7---9---5---|
D|--9---7---5---4---7---9---5---|
A|--9---7---5---4---5---7---3---|
E|--x---x---x---x---x---x---x---|

Intro:

Play this twice
e|---0-----0-----0---7--7----|
B|----0-----0-----0---0--0---|
G|--8--8--8--8--8--8---8--8--|
D|-9-----8-----8-------------|
A|9-----9-----9--------------|
E|---------------------------|

Play this once
e|---0-----0-----0---5--5----|
B|----0-----0-----0---0--0---|
G|--6--6--6--6--6--6---6--6--|
D|-7-----7-----7-------------|
A|7-----7-----7--------------|
E|---------------------------|

Play this once
e|---0-----0-----0---7--7----|
B|----0-----0-----0---0--0---|
G|--8--8--8--8--8--8---8--8--|
D|-9-----8-----8-------------|
A|9-----9-----9--------------|
E|---------------------------|

"I remember..."

Loop above phrases as fits the song, she varies the amount of repeats for each phrase 
throughout the song and it's too much work to tab it all out exactly so just play it by 
ear, you'll get it.


"We dim the light in your room, and we would play.... You were more like a girl every time"

e|---0-----0-----0-----0-----|
B|----0-----0-----0-----0----|
G|--4--4--4--4--4--4--4--4---|
D|-5-----5-----5-----5-------|
A|5-----5-----5-----5--------|
E|---------------------------|

e|---0-----0-----0---2--2----|
B|----0-----0-----0---0--0---|
G|--3--3--3--3--3--3---3--3--|
D|-3-----4-----4-------------|
A|4-----4-----4--------------|
E|---------------------------|

These two phrases just alternate one for one in this part till it goes back up to the B 
and A chord intro phrases after "We'd fall asleep to the tune, as the walls spun 'round"

--

At "Light flashed, life stopped"

e|---------------------------------------------------|
B|---------------------------------------------------|
G|----7-----7-----7-----7-----9-----9-----9-----9----|
D|--7-----7-----7-----7-----9-----9-----9-----9------|
A|5-----5-----5-----5-----7-----7-----7-----7--------|
E|---------------------------------------------------|

Transition: three picks of 7,9,9 and one pick of 5,7,7 into:

"Were things as I remembered"

e|---------------------------------------------------|
B|---------------------------------------------------|
G|----5-----5-----5-----5-----9-----9-----9-----9----|
D|--5-----5-----5-----5-----9-----9-----9-----9------|
A|3-----3-----3-----3-----7-----7-----7-----7--------|
E|---------------------------------------------------|

Transition: three picks 7,9,9 one pick of 5,7,7 back into intro B and A chord phrases 
again after "as a man you left angry"

--

"I'm not telling him now, just the same...You were a dream when you painted your eyes"

e|---0-----0-----0-----0-----|
B|----0-----0-----0-----0----|
G|--4--4--4--4--4--4--4------|
D|-5-----5-----5-----5-------|
A|5-----5-----5-----5--------|
E|---------------------------|

e|---0-----0-----0---2--2----|
B|----0-----0-----0---0--0---|
G|--3--3--3--3--3--3---3--3--|
D|-3-----4-----4-------------|
A|4-----4-----4--------------|
E|---------------------------|

And back to the exact intro phrase chords/length after "mighty you were like a sail on a 
heaving sky"

After intro phrase go back to G/F# previous pattern and after 2 cycles of G/F# return to 
B chord picking to end the song.


And that's it!

This may not be 100% (especially with the power chords) but it sounds pretty darn close 
to me playing along with the tune.

Enjoy~
Suggest correction
Give kudos to tab author, rate the tab!
1 2 3 4 5
comments
print report bad tab
guest
You may want to rate the tab now too:
select rating
Wanna post a correction for this tab? Suggest correction