Oops, an error
Loading. Please wait.

California Comedown chords

925 views 3 this week
2 commentsread comments
1 2 3 4 5
x 5
add to favorites
×
Save as Personal and add changes to this tab that will be seen only by you. Learn more ›
×
You can save this tab as Personal to edit and correct it or add notes. All changes will be seen only by you. Learn more »
launch autoscroll
font size
0
reset
transpose
0
reset
display chords
guitar tuner
edit
Autoscroll
slow
fast
+/-
esc
set tempo
stop
Author
Difficulty
Strumming
There is no strumming pattern for this song yet. and get +5 IQ
Hello, I figured the chords out by listening to the video of this song she uploaded on youtube.
I think this is how Nina plays it, cause she always chooses easy chords :)
F and G chords are played as barre chords
Intro:

      Am                             C                                 F(barre)
e--------------3---------------3---------------------------------------------------------------1-------|
B------1---------------1---------------1-------3-------1-------3-------1-------1-------1---------------|
G----2---2---2---2---2---2---2---2---0---0---0---0---0---0---0---0---2---2---2---2---2---2---2---2-----|
D------------------------------------------------------------------------------------------------------|
A--0-------0-------0-------0-------3-------3-------3-------3-------------------------------------------|
E------------------------------------------------------------------1-------1-------1-------1-----------|
      G(barre)
e--------------------------------|
B-----3-------3-------3-------3--|
G---4---4---4---4---4---4---4--4-|
D--------------------------------|
A--------------------------------|
E-3-------3-------3-------3------|

(This finger picking continues through all the song, whit out playing the high e note)
Am                                            C
Family home, and the walls, they've been torn apart
                                               F
like the memories you have lived with for some time
                                        G
we're soaking in the bath, just you and i

Am
two towels on the table, we're sitting either end
                     C
looking in our brown eyes
                                               F
ain't it crazy by the morning you'll be on the flight
                                    G
and we'll go back to living our own lives

                        F
it's the California comedown
                   G
and it comes in waves
                          F
but now I need it to wash out
         G
all this pain       (are played like in the intro)
                    Am    C
every time you go away

Am                                               C
float back down to where we were, falling from a dream
                                          F
now electric wires, just aren't all they seem
                           G
they're too high for us to reach


it's the California comedown
                   G
and it comes in waves
                          F
but now I need it to wash out
         G
all this pain       (Are played like in the intro)
                    Am C
every time you go away


                         F    G
it's just the California way
                         F    G
it's just the California way
                         F
it's just the California way

            
            
Suggest correction
Creating personal tab
Creating personal tab
You can edit any tab online and save it as your Personal.

You can edit, replace or remove any tab part or add personal notes – all changes will be seen only by you.

Personal tabs can be accessed anytime from any device, even offline.
Learn more »
comments
print report bad tab
2 comments total.
+1 reply
OpusGuitar 94 Mar 24, 2016 05:53 PM

Perfect Tab

guest
You may want to rate the tab now too:
select rating
Wanna post a correction for this tab? Suggest correction