Oops, an error
Loading. Please wait.

Burn Faster tab

1,013 views 1 this week
1 commentread comment
1 2 3 4 5
x 4
add to favorites
×
Save as Personal and add changes to this tab that will be seen only by you. Learn more ›
×
You can save this tab as Personal to edit and correct it or add notes. All changes will be seen only by you. Learn more »
launch autoscroll
font size
0
reset
how to read this tab
guitar tuner
edit
Autoscroll
slow
fast
+/-
esc
set tempo
stop
Nine Black Alps
Burn Faster
Tabbed By James Morris
Date: 30.05.07

Intro
Guitar 1
E|-----------------------------------|
B|-4-4-44-4-4-4-444-7-7-77-7-7-7-777-|
G|-4-4-44-4-4-4-444-7-7-77-7-7-7-777-|
D|-4-4-44-4-4-4-444-7-7-77-7-7-7-777-|
A|-2-2-22-2-2-2-222-5-5-55-5-5-5-555-|
E|-----------------------------------|

Guitar 2 ( )represents the harmony guitar line
E|-2~~~~~~~~/5-4-2~/5~~~~~~~~~~8-7-5\|
B|(4)~~~~~~(/7-4-4~/7)~~~~~~~(10-9-7)|
G|-----------------------------------|
D|-----------------------------------|
A|-----------------------------------|
E|-----------------------------------|

Main Riff
Guitar 1
  F#        D A     D A    C# B
E|-----------------------------------|
B|----------7-------7-------6-4-4-44-|
G|-3-3-3-33-7-6-6-667-6-6-666-4-4-44-|
D|-4-4-4-44-7-7-7-777-7-7-776-4-4-44-| x2
A|-4-4-4-44-5-7-7-775-7-7-774-2-2-22-|
E|-2-2-2-22---5-5-55--5-5-55---------|

Guitar 2
  F#            D  A               D  A            C# B
E|------------------------------------------------------------|
B|-2-2-2-22-2bu(3)bd2-2-2-2-22-2bu(3)bd2-2-2-2-22-2-2---------|
G|----------------------------------------------------4-------|
D|------------------------------------------------------4-4-4-| x2
A|------------------------------------------------------------|
E|------------------------------------------------------------|

Verse (not sure if the strumming pattern is correct)
Guitar 1 (2 plays nothing)
E|----------------------------------------------------|
B|-7--7--7-7----------------9--9--9-9-----------------|
G|-7--7--7-7--8--8-8--8-8-8-9--9--9-9-10-10--10-10-10-|
D|-7--7--7-7--9--9-9--9-9-9-9--9--9-9-11-11--11-11-11-|
A|-5--5--5-5--6--6-6--6-6-6-7--7--7-7--8--8---8--8--8-|
E|----------------------------------------------------|

E|-------------------------------------------------------|
B|-10-10-1010--------------------------------------------|
G|-11-11-1111-11-12--11-11-11-8--8--8-8--10-1010-1010-10-|
D|-11-11-1111-12-12--12-12-12-9--9--9-9--11-1111-1111-11-|
A|--9--9--9-9-12-12--12-12-12-9--9--9-9--11-1111-1111-11-|
E|------------10-10--10-10-10-7--7--7-7---9--9-9--9-9--9-|

Guitar 1
  D             Eb/B            E             F/C#
E|--------------------------------------------------------------------|
B|7-7-7-7-7-7-7-----------------9-9-9-9-9-9-9-------------------------|
G|7-7-7-7-7-7-7-8-8-8-8-8-8-8-8-9-9-9-9-9-9-9-10-10-10-10-10-10-10-10-|
D|7-7-7-7-7-7-7-9-9-9-9-9-9-9-9-9-9-9-9-9-9-9-11-11-11-11-11-11-11-11-|
A|5-5-5-5-5-5-5-6-6-6-6-6-6-6-6-7-7-7-7-7-7-7--8--8--8--8--8--8--8--8-|
E|--------------------------------------------------------------------|
  Gbm              D               B                C#
E|-------------------------------------------------------------------|
B|1011101010101010---------------------------------------------------|
G|1111111111111111-1111111111111111-8-8-8-8-8-8-8-8-1010101010101010-|
D|1111111111111111-1212121212121212-9-9-9-9-9-9-9-9-1111111111111111-|
A|-9-9-9-9-9-9-9-9-1212121212121212-9-9-9-9-9-9-9-9-1111111111111111-|
E|-----------------1010101010101010-7-7-7-7-7-7-7-7--9-9-9-9-9-9-9-9-|

Guitar 2 ( ) represents harmony guitar line
E|(5)-------------(2)--------------(7)-------------(4)---------------|
B|-7~~~~~~~~~~~~~~/4~~~~~~~~~~~~~~~\9~~~~~~~~~~~~~~/6~~~~~~~~~~~~~~~\|
G|-------------------------------------------------------------------|
D|-------------------------------------------------------------------|
A|-------------------------------------------------------------------|
E|-------------------------------------------------------------------|

E|-(9)------------(5)--------------------------------------------------|
B|-10~~~~~~~~~~~~~/7~~~~~~~~~~~~~~~(7)-------------9bu(10)(10)(11)~~---|
G|----------------------------------8~~~~~~~~~~~~~~~-------------------|
D|---------------------------------------------------------------------|
A|---------------------------------------------------------------------|
E|---------------------------------------------------------------------|

Chorus
Guitar 1
  F#        D A     D A    C# B
E|-----------------------------------|
B|----------7-------7-------6-4-4-44-|
G|-3-3-3-33-7-6-6-667-6-6-666-4-4-44-|
D|-4-4-4-44-7-7-7-777-7-7-776-4-4-44-| x2
A|-4-4-4-44-5-7-7-775-7-7-774-2-2-22-|
E|-2-2-2-22---5-5-55--5-5-55---------|

Guitar 2
  F#            D  A               D  A            C# B
E|------------------------------------------------------------|
B|-2-2-2-22-2bu(3)bd2-2-2-2-22-2bu(3)bd2-2-2-2-22-2-2---------|
G|----------------------------------------------------4-------|
D|------------------------------------------------------4-4-4-| x2
A|------------------------------------------------------------|
E|------------------------------------------------------------|

Verse 2
Guitar 1
E|----------------------------------------------------|
B|-7--7--7-7----------------9--9--9-9-----------------|
G|-7--7--7-7--8--8-8--8-8-8-9--9--9-9-10-10--10-10-10-|
D|-7--7--7-7--9--9-9--9-9-9-9--9--9-9-11-11--11-11-11-|
A|-5--5--5-5--6--6-6--6-6-6-7--7--7-7--8--8---8--8--8-|
E|----------------------------------------------------|

E|-------------------------------------------------------|
B|-10-10-1010--------------------------------------------|
G|-11-11-1111-11-12--11-11-11-8--8--8-8--10-1010-1010-10-|
D|-11-11-1111-12-12--12-12-12-9--9--9-9--11-1111-1111-11-|
A|--9--9--9-9-12-12--12-12-12-9--9--9-9--11-1111-1111-11-|
E|------------10-10--10-10-10-7--7--7-7---9--9-9--9-9--9-|

Guitar 2
E|----------------------------------------------------|
B|----------------------------------------------------|
G|-7~~~~~~~~~~8~~~~~~~~~~~~~9~~~~~~~~~10~~~~~~~~~~~~~~
D|----------------------------------------------------|
A|----------------------------------------------------|
E|----------------------------------------------------|

E|----------------------------------------------------|
B|----------------------------------------------------|
G|-11~~~~~~~~~7~~~~~~~~~~~~~8~~~~~~~~~10~~~~~~~~~~~~~-|
D|----------------------------------------------------|
A|----------------------------------------------------|
E|----------------------------------------------------|

Guitar 1
  D             Eb/B            E             F/C#
E|--------------------------------------------------------------------|
B|7-7-7-7-7-7-7-----------------9-9-9-9-9-9-9-------------------------|
G|7-7-7-7-7-7-7-8-8-8-8-8-8-8-8-9-9-9-9-9-9-9-10-10-10-10-10-10-10-10-|
D|7-7-7-7-7-7-7-9-9-9-9-9-9-9-9-9-9-9-9-9-9-9-11-11-11-11-11-11-11-11-|
A|5-5-5-5-5-5-5-6-6-6-6-6-6-6-6-7-7-7-7-7-7-7--8--8--8--8--8--8--8--8-|
E|--------------------------------------------------------------------|
  Gbm              D               B                C#
E|-------------------------------------------------------------------|
B|1011101010101010---------------------------------------------------|
G|1111111111111111-1111111111111111-8-8-8-8-8-8-8-8-1010101010101010-|
D|1111111111111111-1212121212121212-9-9-9-9-9-9-9-9-1111111111111111-|
A|-9-9-9-9-9-9-9-9-1212121212121212-9-9-9-9-9-9-9-9-1111111111111111-|
E|-----------------1010101010101010-7-7-7-7-7-7-7-7--9-9-9-9-9-9-9-9-|

Guitar 2
E|(5)-------------(2)--------------(7)-------------(4)---------------|
B|-7~~~~~~~~~~~~~~/4~~~~~~~~~~~~~~~\9~~~~~~~~~~~~~~/6~~~~~~~~~~~~~~~\|
G|-------------------------------------------------------------------|
D|-------------------------------------------------------------------|
A|-------------------------------------------------------------------|
E|-------------------------------------------------------------------|

E|-(9)------------(5)--------------------------------------------------|
B|-10~~~~~~~~~~~~~/7~~~~~~~~~~~~~~~(7)-------------9bu(10)(10)(11)~~---|
G|----------------------------------8~~~~~~~~~~~~~~~-------------------|
D|---------------------------------------------------------------------|
A|---------------------------------------------------------------------|
E|---------------------------------------------------------------------|

Chorus
Guitar 1
  F#        D A     D A    C# B
E|-----------------------------------|
B|----------7-------7-------6-4-4-44-|
G|-3-3-3-33-7-6-6-667-6-6-666-4-4-44-|
D|-4-4-4-44-7-7-7-777-7-7-776-4-4-44-| x2
A|-4-4-4-44-5-7-7-775-7-7-774-2-2-22-|
E|-2-2-2-22---5-5-55--5-5-55---------|

Guitar 2
  F#            D  A               D  A            C# B
E|------------------------------------------------------------|
B|-2-2-2-22-2bu(3)bd2-2-2-2-22-2bu(3)bd2-2-2-2-22-2-2---------|
G|----------------------------------------------------4-------|
D|------------------------------------------------------4-4-4-| x2
A|------------------------------------------------------------|
E|------------------------------------------------------------|

Bridge
Guitar 1
E|-----------------------------------|
B|-4-4-44-4-4-4-444-7-7-77-7-7-7-777-|
G|-4-4-44-4-4-4-444-7-7-77-7-7-7-777-|
D|-4-4-44-4-4-4-444-7-7-77-7-7-7-777-|
A|-2-2-22-2-2-2-222-5-5-55-5-5-5-555-|
E|-----------------------------------|

Guitar 2 ( )represents the harmony guitar line
E|-2~~~~~~~~/5-4-2~/5~~~~~~~~~~8-7-5\|
B|(4)~~~~~~(/7-4-4~/7)~~~~~~~(10-9-7)|
G|-----------------------------------|
D|-----------------------------------|
A|-----------------------------------|
E|-----------------------------------|

Pre-solo
Guitar 1
E|-------------------------------------------------------------------|
B|-7~--------9~---------10~--------------------------6-6-6-6-6-6-6-6-|
G|-7~---8~---9~---10~---11~---11~----8-8-8-8-8-8-8-8-6-6-6-6-6-6-6-6-|
D|-7~---9~---9~---11~---11~---12~----9-9-9-9-9-9-9-9-6-6-6-6-6-6-6-6-|
A|-5~---6~---7~----8~----9~---12~----9-9-9-9-9-9-9-9-4-4-4-4-4-4-4-4-|
E|----------------------------10~----7-7-7-7-7-7-7-7-----------------|

Guitar 2
E|-----------------------------------7-7-7-7-7-7-7-7-7-7-7-7-7-7-7-7-|
B|-----------------------------------x-x-x-x-x-x-x-x-6-6-6-6-6-6-6-6-|
G|-7~---8~---9~---10~---11~----7~----8-8-8-8-8-8-8-8-----------------|
D|-------------------------------------------------------------------|
A|-------------------------------------------------------------------|
E|-------------------------------------------------------------------|

Solo
Guitar 1
  F#        D A     D A    C# B
E|-----------------------------------|
B|----------7-------7-------6-4-4-44-|
G|-3-3-3-33-7-6-6-667-6-6-666-4-4-44-|
D|-4-4-4-44-7-7-7-777-7-7-776-4-4-44-| x2
A|-4-4-4-44-5-7-7-775-7-7-774-2-2-22-|
E|-2-2-2-22---5-5-55--5-5-55---------|

Guitar 2 (lead)
E|---------------------------------------------------------------------|
B|-2---2---2-----------------------------------------4-2---2--2---2-2--|
G|-4bu(6)bd4--2-4bu(5)bd4-2-22---2-4bu(5)bd4-2-2---2-4-4bu(6)(6)bd4-2~-|
D|-----------------------------4-----------------4---------------------|
A|---------------------------------------------------------------------|
E|---------------------------------------------------------------------|

E|--------------------------7--------------------------------------|
B|----------7----------------------------12---12--12--12--12---12~-|
G|-6-6-66-----6-6-66-6-66-----6-66-6/////14bu(16)(16)(16)(16)bd14~-|
D|--------7---------------7----------------------------------------|
A|-----------------------------------------------------------------|
E|-----------------------------------------------------------------|

Chorus
Guitar 1
  F#        D A     D A    C# B
E|-----------------------------------|
B|----------7-------7-------6-4-4-44-|
G|-3-3-3-33-7-6-6-667-6-6-666-4-4-44-|
D|-4-4-4-44-7-7-7-777-7-7-776-4-4-44-| x2
A|-4-4-4-44-5-7-7-775-7-7-774-2-2-22-|
E|-2-2-2-22---5-5-55--5-5-55---------|

Guitar 2
E|-9-9-9-99-9bu(10)bd9-9-9-9-99-9bu(10)bd9-9-9-9-99-9-9-7-------|
B|--------------------------------------------------------7-7-7~|
G|--------------------------------------------------------------| x2
D|--------------------------------------------------------------|
A|--------------------------------------------------------------|
E|--------------------------------------------------------------|

Guitar 1
  F#        D A     D A    C# B
E|-----------------------------------|
B|----------7-------7-------6-4-4-44-|
G|-3-3-3-33-7-6-6-667-6-6-666-4-4-44-|
D|-4-4-4-44-7-7-7-777-7-7-776-4-4-44-| x2
A|-4-4-4-44-5-7-7-775-7-7-774-2-2-22-|
E|-2-2-2-22---5-5-55--5-5-55---------|

Guitar 2 (Tremolo Picking + sounds like it could be up +1 octave)
E|-9-9-9-9-9-9-10-9-9-9-9-9-9-9-10-9-9-9-9-9-9-7-7///14-14-14-14-14|
B|-----------------------------------------------------------------|
G|-----------------------------------------------------------------| x2
D|-----------------------------------------------------------------|
A|-----------------------------------------------------------------|
E|-----------------------------------------------------------------|

Outro
Guitar 1                   End on
E|-------------------------|-----|
B|-------------------------|-----|
G|-------------------------|-----|
D|-4-4-4-4-4-4-4-4-4-4-4-4-|-4\\-|
A|-4-4-4-4-4-4-4-4-4-4-4-4-|-4\\-|
E|-2-2-2-2-2-2-2-2-2-2-2-2-|-2\\-|

Guitar 2
E|-2-2-2-2/5-5-5-5/9-9-9-9-|-9\\-|
B|-2-2-2-2/5-5-5-5/9-9-9-9-|-9\\-|
G|-------------------------|-----|
D|-------------------------|-----|
A|-------------------------|-----|
E|-------------------------|-----|

End.
Please rate and comment. Cheers.
Enjoy.

            
            
Suggest correction
Creating personal tab
Creating personal tab
You can edit any tab online and save it as your Personal.

You can edit, replace or remove any tab part or add personal notes – all changes will be seen only by you.

Personal tabs can be accessed anytime from any device, even offline.
Learn more »
comments
print report bad tab
1 comment total.
0 reply
dan121212 31 Jun 26, 2007 01:26 AM

awsome! i just played it all in 5th position though

guest
You may want to rate the tab now too:
select rating
Wanna post a correction for this tab? Suggest correction