Oops, an error
Loading. Please wait.

Pocket Full Of Stars chords

version 1
version 1

Whole song

Interactive

36,344 views 57 this week
3 commentsread comments
1 2 3 4 5
x 14
add to favorites
×
Save as Personal and add changes to this tab that will be seen only by you. Learn more ›
×
You can save this tab as Personal to edit and correct it or add notes. All changes will be seen only by you. Learn more »
launch autoscroll
font size
0
reset
transpose
0
reset
display chords
guitar tuner
edit
Autoscroll
slow
fast
+/-
esc
set tempo
stop
Author
Difficulty
Strumming
There is no strumming pattern for this song yet. and get +5 IQ
Song: Pocket full of stars
Artist: Nine Black Alps

[Verse 1]
Am           C                  G             D
I don't know who you are
Am              C                        G             D
And I don't know where you've been
Am       C                  G             D
Always out on your own
Am        C                  G
Always down on your knees

[Chorus]
 D                                Am
Now you know I need a miracle
    C
A star crossed lover
     G                     D
An arrow in my heart
              Am                  C
I need a rainy day in an endless summer
    G                D
A pocket full of stars

Maybe you're just like me
You see faces in the crowd
Looking down at their feet
Never once make a sound

[Chorus]
 D                                Am
Now you know I need a miracle
    C
A star crossed lover
     G                     D
An arrow in my heart
              Am                  C
I need a rainy day in an endless summer
    G                D
A pocket full of stars

I need a miracle
A star crossed lover
An arrow in my heart
I need a rainy day in an endless summer
A pocket full of stars

[End] Am


That’s pretty much it just play that the entire way I don’t have the actual picking up 
the chords yet I’m still working on it but I think it sounds pretty good

            
            
Suggest correction
Creating personal tab
Creating personal tab
You can edit any tab online and save it as your Personal.

You can edit, replace or remove any tab part or add personal notes – all changes will be seen only by you.

Personal tabs can be accessed anytime from any device, even offline.
Learn more »
comments
print report bad tab
3 comments total.
+1 reply
Dotzek 113 Sep 04, 2007 06:12 AM

the end is C

+1 reply
FinderofNemo 337 Oct 06, 2007 01:50 PM

Good tab, but yeah it ends on a C

0 reply
sedulousTi 80 Nov 16, 2014 04:33 AM

The Song is actually played with a Capo on 1st fret. Also, the chords here are for the intro and refrain, the verses use C Em G D. Here's the picking for both:

Intro/Refrain:
Am C G D
e|------0-------0-|-------0-------0-|-------3-------3-|-----2-------2---
b|--1-------1-----|---1-------1-----|---0-------0-----|---3-------3-----
g|----2-------2---|-----0-------0---|-----0-------0---|-------2-------2-
d|----------------|-----------------|---------0-------|-0---------------
A|-0--------------|-3---------------|-----------------|---------0-------
E|--------0-------|---------3-------|-3---------------|-----------------

Verse:
C Em G D
e|------0-------0-|-------0-------0-|-------3-------3-|-----2-------2---
b|--1-------1-----|---0-------0-----|---0-------0-----|---3-------3-----
g|----0-------0---|-----0-------0---|-----0-------0---|-------2-------2-
d|----------------|-----------------|-----------------|-0--------0------
A|-3------3-------|-----------------|-----------------|-----------------
E|----------------|-0-------0-------|-3-------3-------|-----------------

guest
You may want to rate the tab now too:
select rating
Wanna post a correction for this tab? Suggest correction