Oops, an error
Loading. Please wait.

Shot Down tab

version 3
version 3

Whole song

Interactive

260 views 1 this week
no commentswrite comment
1 2 3 4 5
1 last vote to show rating
add to favorites
×
Save as Personal and add changes to this tab that will be seen only by you. Learn more ›
×
You can save this tab as Personal to edit and correct it or add notes. All changes will be seen only by you. Learn more »
launch autoscroll
font size
0
reset
how to read this tab
guitar tuner
edit
Autoscroll
slow
fast
+/-
esc
set tempo
stop
Nine Black Alps - Shot Down

Tabbed by Captain Planet

Pretty sure this is accurate. You might have to work out the
rhythm for yourself but if you've heard the song then you will
have no problems with this tab. Enjoy, and please rate!


INTRO

e|------------------------------|
b|----8-8--8-8-8-8-8-888--------|
g|----6-6--6-6-6-6-6-666---x4---|
d|----7-7--7-7-7-7-7-777--------|
a|----x-x--x-x-x-x-x-xxx--------|
e|----5-5--5-5-5-5-5-555--------|


VERSE
                             x3 then                     both bars x2
e|-----------------------------|----------------------------------|
b|-----------------------------|----------------------------------|
g|•-10--10-101010-------------•|----11-11-11--------13------------|
d|•-10--10-101010---7--7-7777-•|----12-12-12--etc.--14------------|
a|--8---8--8-8-8----7--7-7777--|----12-12-12--------14------------|
e|--8---8--8-8-8----5--5-5555--|----10-10-10--------12------------|
                                                    slides up to the E 
                                                    the first time, not 
                                                    the 2nd.

REPEAT INTRO

REPEAT VERSE


Pre-Chorus

e|------------------------------------------------------------------|
b|--13-13-13--13-13--13-13-13--13-13-13---8-8--8-8-8-8-8------------|
g|--11-11-11--11-11--11-11-11--11-11-11---6-6--6-6-6-6-6------------|
d|--12-12-12--12-12--12-12-12--12-12-12---7-7--7-7-7-7-7-etc.-------|
a|--x--x--x---x--x---x--x--x---x--x--x----x-x--x-x-x-x-x------------|
e|--10-10-10--10-10--10-10-10--10-10-10---5-5--5-5-5-5-5------------|

e|---------------------------------------|
b|--13-13-13--13-13--13-13-13--13-13-13--|
g|--11-11-11--11-11--11-11-11--11-11-11--|
d|--12-12-12--12-12--12-12-12--12-12-12--|
a|--x--x--x---x--x---x--x--x---x--x--x---|
e|--10-10-10--10-10--10-10-10--10-10-10--|


CHORUS

e|--------------8---8-----8--------------|-------------------------------|
b|-10-10-x--10--8---8--x--8---9--9--x--9-|-------------------------------|
g|-10-10-x--10--9---9--x--9---9--9--x--9-|-------------------------------|
d|-10-10-x--10--10--10-x--10--9--9--x--9-|-7777-7/999-9/101010-10/121212-|
a|-8--8--x--8---10--10-x--10--7--7--x--7-|-xxxx-x/xxx-x/x-x-x--x-/x-x-x--|
e|-8--8--x--8---8---8--x--8---7--7--x--7-|-5555-5/777-7/8-8-8--8-/101010-|
                                          these octaves could be played
                                          an octave higher, I can't tell

e|--------------8---8-----8------------------------------------|
b|-10-10-x--10--8---8--x--8---9-9-9-9-9-9-9-9-9-9-9-9-9-9-9-9--|
g|-10-10-x--10--9---9--x--9---9-9-9-9-9-9-9-9-9-9-9-9-9-9-9-9--|
d|-10-10-x--10--10--10-x--10--9-9-9-9-9-9-9-9-9-9-9-9-9-9-9-9--|
a|-8--8--x--8---10--10-x--10--7-7-7-7-7-7-7-7-7-7-7-7-7-7-7-7--|
e|-8--8--x--8---8---8--x--8---7-7-7-7-7-7-7-7-7-7-7-7-7-7-7-7--|
 |
e|-------------------------------------------------------------|
b|-------------------------------------------------------------|
g|-------------------------------------------------------------|
d|-----------Gtr.II-----------6-6-6-6-7-7-7-7-8-8-8-8-9-9-9-9--|
a|----------------------------x-x-x-x-x-x-x-x-x-x-x-x-x-x-x-x--|
e|----------------------------4-4-4-4-5-5-5-5-6-6-6-6-7-7-7-7--|


REPEAT INTRO


SOLO (VERSE chords underneath)

    v-bend 7th fret to 9th, release then pull off to 5th
e|----------------------------------------------------------------|
b|----------------------------------------------------------------|
g|--7b9r7p5----5---5~--7b9r7p5---5---5~--7b9r7p5---5---5~---------|
d|----------7----7-------------7---7-------------7---7------------|
a|----------------------------------------------------------------|
e|----------------------------------------------------------------|

e|----------------------------------------------------------------|
b|--5---5-5-5-5-5-5-5---5-5-5-----10----10--10/13\10--------------|
g|--5h7-7-7-7-5-5-5-5h7-7-7-7-9---12b14-14------------------------|
d|----------------------------------------------------------------|
a|----------------------------------------------------------------|
e|----------------------------------------------------------------|
                                        ^-hold the bend and hit the G+B strings

e|----------------------------------------------------------------|
b|--10----10--10/13\10---10----10--10/13\10---10----10--15\10-10--|
g|--12b14-14-------------12b14-14-------------12b14-14------------|
d|----------------------------------------------------------------|
a|----------------------------------------------------------------|
e|----------------------------------------------------------------|


e|----------------------------------------------------------------|
b|--10----10--10/13\10---10----10--10-----------------------------|
g|--12b14-14-------------12b14-14-----12-9\-----------------------|
d|----------------------------------------------------------------|
a|----------------------------------------------------------------|
e|----------------------------------------------------------------|


e|----------------------------------------------------------------|
b|--5---5-5-5-5-5-5-5---5-5-5-5-5-5-------------------------------|
g|--5h7-7-7-7p5-5-5-5h7-7-7-7p5-5-5-------------------------------|
d|----------------------------------------------------------------|
a|----------------------------------------------------------------|
e|----------------------------------------------------------------|


REPEAT PRE-CHORUS

REPEAT CHORUS

REPEAT INTRO (x3 instead of x4, and end on A7)



Thanks, hope you have fun with this song.

            
            
Suggest correction
Creating personal tab
Creating personal tab
You can edit any tab online and save it as your Personal.

You can edit, replace or remove any tab part or add personal notes – all changes will be seen only by you.

Personal tabs can be accessed anytime from any device, even offline.
Learn more »
Give kudos to tab author, rate the tab!
1 2 3 4 5
comments
print report bad tab
guest
You may want to rate the tab now too:
select rating
Wanna post a correction for this tab? Suggest correction