Oops, an error
Loading. Please wait.

Under The Sun tab

867 views 3 this week
no commentswrite comment
1 2 3 4 5
3 more votes to show rating
add to favorites
×
Save as Personal and add changes to this tab that will be seen only by you. Learn more ›
×
You can save this tab as Personal to edit and correct it or add notes. All changes will be seen only by you. Learn more »
launch autoscroll
font size
0
reset
how to read this tab
guitar tuner
edit
Autoscroll
slow
fast
+/-
esc
set tempo
stop
Author
Difficulty
intermediate
Under the Sun
Nine Black Alps
From Love/Hate

NOTE: Tuning - Down 1 step (dAFCGD)

Found the first few notes by accident, so tried to tab the 
rest. Would have done it sooner, but it's taken me so long
to do! Hopefully it sounds something like the real deal. 
I'm pretty sure its about 99% correct. Either way its good
fun to play along to! 

I think the lead guitar towards the end of the song might
be standard tuned, but I've tabbed it a step down.
Such an amazing song, from an amazing band. I just hope 
I've done it justice!

Please rate, and add comments on any improvements.
Cheers.



Intro

d|----------------------------------------------------|
A|---1---1---1---1---1---1---1---1---1---1---1---1----|
F|-----0-----------0-----------0-----------0----------|
C|---------2---4-------2-----------2---4--------------|
G|-3-----------------------3-------------------3------|
D|----------------------------------------------------|


1st Verse

       Shocked myself again    crossed my name off the      
d|----------------------------------------------------|
A|---1---1---1---1---1---1---1---1---1---1---1---1----|
F|-----0-----------0-----------0-----------0----------|
C|---------2---4-------2-----------2---4-------2------|
G|-3-----------------------3--------------------------|
D|----------------------------------------------------|
   
   list I      don't     belong
d|----------------------------------------------------|
A|---1---1---1---0---0---0---1---1---1---1---1---1----|
F|-----2-----------4-----------2-----------2----------|
C|---------2-----------2-----------2-----------2------|
G|-0-----------0-----------0-----------0--------------|
D|----------------------------------------------------|

       Why would you depend    on a voice that can     
d|----------------------------------------------------|
A|---1---1---1---1---1---1---1---1---1---1---1---1----|
F|-----0-----------0-----------0-----------0----------|
C|---------2---4-------2-----------2---4-------2------|
G|-3-----------------------3--------------------------|
D|----------------------------------------------------|
   
   only        do you      wrong          I don't
d|----------------------------------------------------|
A|---1---1---1---0---0---0---1---1---1---1---1---1----|
F|-----2-----------4-----------2-----------2----------|
C|---------2-----------2-----------2-----------2------|
G|-0-----------0-----------0-----------0--------------|
D|----------------------------------------------------|


   wanna       be         alone              I'll be         
d|----------------------------------------------------|
A|---1---1---1---3---3---3---4---4---4---3---3---3----|
F|-----1-----------1-----------1-----------3----------|
C|---------0-----------0-----------0-----------3------|
G|-3-----------3-----------3-----------1--------------|
D|----------------------------------------------------|



Chorus

   over there                          under the 
d|---0---0---0---0---0---0---0---0---0---0---0---0----|
A|----------------------------------------------------|
F|-----2-----------2-----------2-----------2----------|
C|---------2---3-------2-----------2---3-------2------|
G|-0-----------------------0--------------------------|
D|----------------------------------------------------|

   sun                                       that
d|----------------------------------------------------|
A|---1---1---1---1---1---1---1---1---1---1---1---1----|
F|----------------------------------------------------|
C|-----0-----------0-----------0-----------0----------|
G|-3-------2---3-------2---3-------2---3-------2------|
D|----------------------------------------------------|

   yellow moon                       its cold and it
d|---0---0---0---0---0---0---0---0---0---0---0---0----|
A|----------------------------------------------------|
F|-----2-----------2-----------2-----------2----------|
C|---------2---3-------2-----------2---3-------2------|
G|-0-----------------------0--------------------------|
D|----------------------------------------------------|

   holds no    comfort     there                   no
d|---0---0---0---0---0---0---1---1---1---1---1---1----|
A|----------------------------------------------------|
F|-----0-----------2-----------0-----------0----------|
C|---------2-----------3-----------0-----------0------|
G|----------------------------------------------------|
D|-0-----------1-----------3-----------3--------------|

   room to     hide your   cares
d|---0---0---0---0---0---0---1---1---1---1---1---1----|
A|----------------------------------------------------|
F|-----0-----------2-----------0-----------0----------|
C|---------2-----------3-----------0-----------0------|
G|----------------------------------------------------|
D|-0-----------1-----------3-----------3--------------|

d|---0---0---0---0---0---0---0---0---0---0---0--------|
A|-----------------------------------------------0----|
F|-----2-----------2-----------2-----------2----------|
C|---------2---3-------2-----------2---3--------------|
G|-0-----------------------0-------------------0------|
D|----------------------------------------------------|



2nd Verse

       fell asleep again       dreamt myself as a
d|----------------------------------------------------|
A|---1---1---1---1---1---1---1---1---1---1---1---1----|
F|-----0-----------0-----------0-----------0----------|
C|---------2---4-------2-----------2---4-------2------|
G|-3-----------------------3--------------------------|
D|----------------------------------------------------|

   cloud that  never       rains
d|----------------------------------------------------|
A|---1---1---1---0---0---0---1---1---1---1---1---1----|
F|-----2-----------4-----------2-----------2----------|
C|---------2-----------2-----------2-----------2------|
G|-0-----------0-----------0-----------0--------------|
D|----------------------------------------------------|

       why would you depend    on a heart that can 
d|----------------------------------------------------|
A|---1---1---1---1---1---1---1---1---1---1---1---1----|
F|-----0-----------0-----------0-----------0----------|
C|---------2---4-------2-----------2---4-------2------|
G|-3-----------------------3--------------------------|
D|----------------------------------------------------|
   
   only        bring you   pain              I don't
d|----------------------------------------------------|
A|---1---1---1---0---0---0---1---1---1---1---1---1----|
F|-----2-----------4-----------2-----------2----------|
C|---------2-----------2-----------2-----------2------|
G|-0-----------0-----------0-----------0--------------|
D|----------------------------------------------------|

   wanna       be          around            I'll be        
d|----------------------------------------------------|
A|---1---1---1---3---3---3---4---4---4---3---3---3----|
F|-----1-----------1-----------1-----------3----------|
C|---------0-----------0-----------0-----------3------|
G|-3-----------3-----------3-----------1--------------|
D|----------------------------------------------------|



2nd Chorus

  over there                          under the 
d|---0---0---0---0---0---0---0---0---0---0---0---0----|
A|----------------------------------------------------|
F|-----2-----------2-----------2-----------2----------|
C|---------2---3-------2-----------2---3-------2------|
G|-0-----------------------0--------------------------|
D|----------------------------------------------------|

   sun                                       that
d|----------------------------------------------------|
A|---1---1---1---1---1---1---1---1---1---1---1---1----|
F|----------------------------------------------------|
C|-----0-----------0-----------0-----------0----------|
G|-3-------2---3-------2---3-------2---3-------2------|
D|----------------------------------------------------|

   yellow moon                       its cold and it
d|---0---0---0---0---0---0---0---0---0---0---0---0----|
A|----------------------------------------------------|
F|-----2-----------2-----------2-----------2----------|
C|---------2---3-------2-----------2---3-------2------|
G|-0-----------------------0--------------------------|
D|----------------------------------------------------|

   holds no    comfort     there                   no
d|---0---0---0---0---0---0---1---1---1---1---1---1----|
A|----------------------------------------------------|
F|-----0-----------2-----------0-----------0----------|
C|---------2-----------3-----------0-----------0------|
G|----------------------------------------------------|
D|-0-----------1-----------3-----------3--------------|

   room to     hide your   cares
d|---0---0---0---0---0---0---1---1---1---1---1---1----|
A|----------------------------------------------------|
F|-----0-----------2-----------0-----------0----------|
C|---------2-----------3-----------0-----------0------|
G|----------------------------------------------------|
D|-0-----------1-----------3-----------3--------------|



Strumming easy enough to figure out yourself

Lead (with distortion, reverb, and loads of sustain)
d|-12-----------------------------------|


Rhythm
d|-0-0-0-0--0-0-0-0--0-0-0-0--0-0-0-0-----------------|
A|-1-1-1-1--0-0-0-0--1-1-1-1--0-0-0-0-----------------|
F|-2-2-2-2--2-2-2-2--2-2-2-2--2-2-2-2-----------------|
C|-2-2-2-2--2-2-2-2--2-2-2-2--2-2-2-2-----------------|
G|-0-0-0-0--0-0-0-0--0-0-0-0--0-0-0-0-----------------|
D|----------------------------------------------------|

d|-13-----------------------------------|


d|-1-1-1-1--1-1-1-1--1-1-1-1--1-1-1-1-----------------|
A|-3-3-3-3--0-0-0-0--3-3-3-3--0-0-0-0-----------------|
F|-2-2-2-2--2-2-2-2--2-2-2-2--2-2-2-2-----------------|
C|-0-0-0-0--0-0-0-0--0-0-0-0--0-0-0-0-----------------|
G|----------------------------------------------------|
D|----------------------------------------------------|


d|-10----------------7------------------|


d|-0-0-0-0--0-0-0-0--0-0-0-0--0-0-0-0-----------------|
A|-1-1-1-1--1-1-1-1--0-0-0-0--0-0-0-0-----------------|
F|-2-2-2-2--2-2-2-2--0-0-0-0--0-0-0-0-----------------|
C|-3-3-3-3--3-3-3-3--2-2-2-2--2-2-2-2-----------------|
G|-3-3-3-3--3-3-3-3--2-2-2-2--2-2-2-2-----------------|
D|-------------------0-0-0-0--0-0-0-0-----------------|

d|-12----------------15-----------------|

                                              You
d|-0-0-0-0--0-0-0-0--3-3-3-3--3-3-3-3-----------------|
A|-1-1-1-1--1-1-1-1--1-1-1-1--1-1-1-1-----------------|
F|-2-2-2-2--2-2-2-2--2-2-2-2--2-2-2-2-----------------|
C|-2-2-2-2--2-2-2-2--2-2-2-2--2-2-2-2-----------------|
G|-0-0-0-0--0-0-0-0--0-0-0-0--0-0-0-0-----------------|
D|----------------------------------------------------|



d|-12--------------------------------13-|

   fell   into a     steady   sleep
d|-0-0-0-0--0-0-0-0--0-0-0-0--0-0-0-0-----------------|
A|-1-1-1-1--1-1-1-1--1-1-1-1--1-1-1-1-----------------|
F|-0-0-0-0--0-0-0-0--0-0-0-0--0-0-0-0-----------------|
C|-2-2-2-2--2-2-2-2--2-2-2-2--2-2-2-2-----------------|
G|-3-3-3-3--3-3-3-3--3-3-3-3--3-3-3-3-----------------|
D|----------------------------------------------------|

d|-12--------------------------------13-|

  awoke    alone and out of   reach              to
d|-0-0-0-0--0-0-0-0--0-0-0-0--0-0-0-0-----------------|
A|-1-1-1-1--1-1-1-1--1-1-1-1--1-1-1-1-----------------|
F|-2-2-2-2--2-2-2-2--2-2-2-2--2-2-2-2-----------------|
C|-2-2-2-2--2-2-2-2--2-2-2-2--2-2-2-2-----------------|
G|-0-0-0-0--0-0-0-0--0-0-0-0--0-0-0-0-----------------|
D|----------------------------------------------------|

d|-10-----------------------------------|

   stumble  over     who you  were            and
d|-0-0-0-0--0-0-0-0--0-0-0-0--0-0-0-0-----------------|
A|-1-1-1-1--1-1-1-1--1-1-1-1--1-1-1-1-----------------|
F|-0-0-0-0--0-0-0-0--0-0-0-0--0-0-0-0-----------------|
C|-2-2-2-2--2-2-2-2--2-2-2-2--2-2-2-2-----------------|
G|-3-3-3-3--3-3-3-3--3-3-3-3--3-3-3-3-----------------|
D|----------------------------------------------------|

d|-12--------------------------------13-|

   told your story   in     reverse         You
d|-0-0-0-0--0-0-0-0--0-0-0-0--0-0-0-0-----------------|
A|-1-1-1-1--1-1-1-1--1-1-1-1--1-1-1-1-----------------|
F|-2-2-2-2--2-2-2-2--2-2-2-2--2-2-2-2-----------------|
C|-2-2-2-2--2-2-2-2--2-2-2-2--2-2-2-2-----------------|
G|-0-0-0-0--0-0-0-0--0-0-0-0--0-0-0-0-----------------|
D|----------------------------------------------------|




d|-15--------------------------------13-|

   fell   into a     steady   sleep
d|-0-0-0-0--0-0-0-0--0-0-0-0--0-0-0-0-----------------|
A|-1-1-1-1--1-1-1-1--1-1-1-1--1-1-1-1-----------------|
F|-0-0-0-0--0-0-0-0--0-0-0-0--0-0-0-0-----------------|
C|-2-2-2-2--2-2-2-2--2-2-2-2--2-2-2-2-----------------|
G|-3-3-3-3--3-3-3-3--3-3-3-3--3-3-3-3-----------------|
D|----------------------------------------------------|

d|-12--------------------------------13-|

  awoke    alone and out of   reach              to
d|-0-0-0-0--0-0-0-0--0-0-0-0--0-0-0-0-----------------|
A|-1-1-1-1--1-1-1-1--1-1-1-1--1-1-1-1-----------------|
F|-2-2-2-2--2-2-2-2--2-2-2-2--2-2-2-2-----------------|
C|-2-2-2-2--2-2-2-2--2-2-2-2--2-2-2-2-----------------|
G|-0-0-0-0--0-0-0-0--0-0-0-0--0-0-0-0-----------------|
D|----------------------------------------------------|

d|-15-----------------------------------|

   stumble  over     who you  were               a
d|-0-0-0-0--0-0-0-0--0-0-0-0--0-0-0-0-----------------|
A|-1-1-1-1--1-1-1-1--1-1-1-1--1-1-1-1-----------------|
F|-0-0-0-0--0-0-0-0--0-0-0-0--0-0-0-0-----------------|
C|-2-2-2-2--2-2-2-2--2-2-2-2--2-2-2-2-----------------|
G|-3-3-3-3--3-3-3-3--3-3-3-3--3-3-3-3-----------------|
D|----------------------------------------------------|

d|-12--------------------------------10-|

   horror   story    underneath       the sun 
d|-0-0-0-0--0-0-0-0--0-0-0-0--0-0-0-0-----------------|
A|-1-1-1-1--1-1-1-1--1-1-1-1--1-1-1-1-----------------|
F|-2-2-2-2--2-2-2-2--2-2-2-2--2-2-2-2-----------------|
C|-2-2-2-2--2-2-2-2--2-2-2-2--2-2-2-2-----------------|
G|-0-0-0-0--0-0-0-0--0-0-0-0--0-0-0-0-----------------|
D|----------------------------------------------------|


Outro (Change in strumming patern)


d|-8------------------------------------|

d|-0-0-0-0-0-0-0-0-0-0-0-0-----------------|
A|-1-1-1-1-1-1-1-1-1-1-1-1-----------------|
F|-0-0-0-0-0-0-0-0-0-0-0-0-----------------|
C|-2-2-2-2-2-2-2-2-2-2-2-2-----------------|
G|-3-3-3-3-3-3-3-3-3-3-3-3-----------------|
D|-----------------------------------------|

d|-12--------------------------------10-|

d|-0-0-0-0-0-0-0-0-0-0-0-0-----------------|
A|-1-1-1-1-1-1-1-1-1-1-1-1-----------------|
F|-2-2-2-2-2-2-2-2-2-2-2-2-----------------|
C|-2-2-2-2-2-2-2-2-2-2-2-2-----------------|
G|-0-0-0-0-0-0-0-0-0-0-0-0-----------------|
D|-----------------------------------------|

d|-8------------------------------------|

d|-0-0-0-0-0-0-0-0-0-0-0-0-----------------|
A|-1-1-1-1-1-1-1-1-1-1-1-1-----------------|
F|-0-0-0-0-0-0-0-0-0-0-0-0-----------------|
C|-2-2-2-2-2-2-2-2-2-2-2-2-----------------|
G|-3-3-3-3-3-3-3-3-3-3-3-3-----------------|
D|-----------------------------------------|

d|-12--------------------------------10-|

d|-0-0-0-0-0-0-0-0-0-0-0-0-----------------|
A|-1-1-1-1-1-1-1-1-1-1-1-1-----------------|
F|-2-2-2-2-2-2-2-2-2-2-2-2-----------------|
C|-2-2-2-2-2-2-2-2-2-2-2-2-----------------|
G|-0-0-0-0-0-0-0-0-0-0-0-0-----------------|
D|-----------------------------------------|

I can't be bothered with the very end, but it just
sounds like some ad lib with Am and C chord shapes.

            
            
Suggest correction
Creating personal tab
Creating personal tab
You can edit any tab online and save it as your Personal.

You can edit, replace or remove any tab part or add personal notes – all changes will be seen only by you.

Personal tabs can be accessed anytime from any device, even offline.
Learn more »
Give kudos to tab author, rate the tab!
1 2 3 4 5
comments
print report bad tab
guest
You may want to rate the tab now too:
select rating
Wanna post a correction for this tab? Suggest correction