Oops, an error
Loading. Please wait.

1000000 Bass Tab

version 1
version 1

Whole song

Interactive

5,633 views 9 this week
no commentswrite comment
1 2 3 4 5
excellent!
x 1
add to favorites
launch autoscroll
font size
0
reset
guitar tuner
Tab Pro tools
  • play this tab
  • loop segment
  • change instrument
  • show fretboard
  • metronome
Autoscroll
slow
fast
+/-
esc
set tempo
stop
Contributor
Tuning
D A D G B E
#----------------------------------PLEASE NOTE---------------------------------#
#This file is the author's own work and represents their interpretation of the #
#song. You may only use this file for private study, scholarship, or research. #
#------------------------------------------------------------------------------#

1,000,000 (Bassline)
As recorded by Nine Inch Nails
(From the 2008 Album THE SLIP)

Transcribed by Mitchell Gardner
	

Words by Trent Reznor Music by Nine Inch Nails

Gtr I (D A D G B E) - 'Synth'
Gtr II (D A D G) - 'Bass I (Clean)'
Gtr III (D A D G) - 'Bass II (Dist.)'

 Intro
  Q=136
 4/4
  Gtr I
  Wx12
|---------||
|---------||
|---------||
|---------||
|---------||
|---------||


 Verse I
  Wx8
|--------|
|--------|
|--------|
|--------|
|--------|
|--------|


  Q  q  q  q    q  q  q  q    q  q  q  q    q  q  q  q
|-------------|-------------|-------------|-------------|
|----3--3--3--|-3--3--3--3--|----3--3--3--|-3--3--3--3--|
|-------------|-------------|-------------|-------------|
|-------------|-------------|-------------|-------------|
|-------------|-------------|-------------|-------------|
|-------------|-------------|-------------|-------------|


  Q  q  q  q    q  q  q  q    q  q  q  q    q  q  q  q
|-------------|-------------|-------------|-------------||
|----3--3--3--|-3--3--3--3--|----3--3--3--|-3--3--3--3--||
|-------------|-------------|-------------|-------------||
|-------------|-------------|-------------|-------------||
|-------------|-------------|-------------|-------------||
|-------------|-------------|-------------|-------------||


 Interlude
  E E q  q  q    q  q  q  q    E E q  q  q    q  q  q  q
|--------------|-------------|--------------|-------------|
|-----3--3--3--|-3--3--3--3--|-----3--3--3--|-3--3--3--3--|
|--------------|-------------|--------------|-------------|
|---0----------|-------------|---0----------|-------------|
|--------------|-------------|--------------|-------------|
|-0------------|-------------|-0------------|-------------|


  E E q  q  q    q  q  q  q    E E q  q  q    q  q  q  q
|--------------|-------------|--------------|-------------||
|-----3--3--3--|-3--3--3--3--|-----3--3--3--|-3--3--3--3--||
|--------------|-------------|--------------|-------------||
|---0----------|-------------|---0----------|-------------||
|--------------|-------------|--------------|-------------||
|-0------------|-------------|-0------------|-------------||


 Chorus
  Gtr II
   E E E E E E E E   E E E E E E E E   W          W
|------------------|-----------------|----------|------|
|------------------|-----------------|----------|------|
|------------------|-----------------|----------|------|
|-/5-5-5-5-5-5-5-5-|-3-3-3-3-3-3-3-3-|----------|------|


   E E E E E E E E   E E E E E E E E   W          W
|------------------|-----------------|----------|------|
|------------------|-----------------|----------|------|
|------------------|-----------------|----------|------|
|-/5-5-5-5-5-5-5-5-|-3-3-3-3-3-3-3-3-|----------|------|


   E E E E E E E E   E E E E E E E E   H.      E E   E E E E E E Q
|------------------|-----------------|-------------|----------------|
|------------------|-----------------|-------------|----------------|
|------------------|-----------------|-------------|----------------|
|-/5-5-5-5-5-5-5-5-|-3-3-3-3-3-3-3-3-|---------0-0-|---0-0---0---0--|


   E E E E E E E E   E E E E E E E E
|------------------|-----------------||
|------------------|-----------------||
|------------------|-----------------||
|-/5-5-5-5-5-5-5-5-|-3-3-3-3-3-3-3-3-||


 Pre-Verse
  Wx4
|--------||
|--------||
|--------||
|--------||


 Verse II
  Wx8
|--------|
|--------|
|--------|
|--------|


  Gtr I
   W                       W
|-----------------------|-----------------------|
|-----------------------|-----------------------|
|-----------------------|-----------------------|
|-----------------------|-----------------------|
|-----------------------|-----------------------|
|-----------------------|-----------------------|
|
| Gtr II
|  E  E  E  E  E  E E E    E  E  E  E  E  E E E
|-----------------------|-----------------------|
|-----------------------|-----------------------|
|-----------------------|-----------------------|
|-10-12-10-12-12\-0-0-0-|-15-17-10-12-12\-0-0-0-|


   W                       q     q     q    q
|-----------------------|-----------------------|
|-----------------------|--3-----3-----3----3---|
|-----------------------|-----------------------|
|-----------------------|-----------------------|
|-----------------------|-----------------------|
|-----------------------|-----------------------|
|
|  E  E  E  E  E  E E E    E  E  E  E  E  E E E
|-----------------------|-----------------------|
|-----------------------|-----------------------|
|-----------------------|-----------------------|
|-10-12-10-12-12\-0-0-0-|-15-17-10-12-12\-0-0-0-|


   Q     q     q    q      q     q     q    q
|-----------------------|-----------------------|
|--------3-----3----3---|--3-----3-----3----3---|
|-----------------------|-----------------------|
|-----------------------|-----------------------|
|-----------------------|-----------------------|
|-----------------------|-----------------------|
|
|  E  E  E  E  E  E E E    E  E  E  E  E  E E E
|-----------------------|-----------------------|
|-----------------------|-----------------------|
|-----------------------|-----------------------|
|-10-12-10-12-12\-0-0-0-|-15-17-10-12-12\-0-0-0-|


   E  E  q     q    q      q     q     q    q
|-----------------------|-----------------------||
|--------3-----3----3---|--3-----3-----3----3---||
|-----------------------|-----------------------||
|-----0-----------------|-----------------------||
|-----------------------|-----------------------||
|--0--------------------|-----------------------||
|
|  E  E  E  E  E  E E E    E  E  E  E  E  E E E
|-----------------------|-----------------------||
|-----------------------|-----------------------||
|-----------------------|-----------------------||
|-10-12-10-12-12\-0-0-0-|-15-17-10-12-12\-0-0-0-||


   Chorus
    Gtr II
     E E E E E E E E   E E E E E E E E   W          W
||-------------------|-----------------|----------|-------||
||o------------------|-----------------|----------|------o||
||o------------------|-----------------|----------|------o||
||--/5-5-5-5-5-5-5-5-|-3-3-3-3-3-3-3-3-|----------|-------||


   E E E E E E E E   E E E E E E E E   H.      E E   E E E E E E Q
|------------------|-----------------|-------------|----------------|
|------------------|-----------------|-------------|----------------|
|------------------|-----------------|-------------|----------------|
|-/5-5-5-5-5-5-5-5-|-3-3-3-3-3-3-3-3-|---------0-0-|---0-0---0---0--|


     E E E E E E E E   E E E E E E E E   W          W
||-------------------|-----------------|----------|-------||
||o------------------|-----------------|----------|------o||
||o------------------|-----------------|----------|------o||
||--/5-5-5-5-5-5-5-5-|-3-3-3-3-3-3-3-3-|----------|-------||


   E E E E E E E E   E E E E E E E E
|------------------|-----------------|
|------------------|-----------------|
|------------------|-----------------|
|-/5-5-5-5-5-5-5-5-|-3-3-3-3-3-3-3-3-|


   E  E  E  E  E  E E E    E  E  E  E  E  E E E
|-----------------------|-----------------------|
|-----------------------|-----------------------|
|-----------------------|-----------------------|
|-10-12-10-12-12\-0-0-0-|-15-17-10-12-12\-0-0-0-|


   E E E E E E E E   E E E E E E E E   W          E E E E E E Q
|------------------|-----------------|----------|----------------|
|------------------|-----------------|----------|----------------|
|------------------|-----------------|----------|----------------|
|-/5-5-5-5-5-5-5-5-|-3-3-3-3-3-3-3-3-|----------|---0-0---0---0--|


   E E E E E E E E   q  H.        W
|------------------|------------|------||
|------------------|------------|------||
|------------------|------------|------||
|-/5-5-5-5-5-5-5-5-|-3----------|------||


   Outro
    Gtr III
    H    E  E  +E. S   q  Q.    E  +E. S   q  Q.    E  +E  E   q  H.     4x
||-------------------|-------------------|-------------------|-----------||
||o------------------|-------------------|-------------------|----------o||
||o------------------|-------------------|-------------------|----------o||
||---------10-(10)s6-|-3-------10-(10)s6-|-3-------10-(10)S9S|=5---------||


    Gtr II
     E  E  E  E  E   E   E  E      E  E  E   E  E   E   E  E
||------------------------------|------------------------------|
||o-----------------------------|------------------------------|
||o-----------------------------|------------------------------|
||--10-12-10-12-12\--0---0--0---|-15-17-10--12-12\--0---0--0---|
|
|   Gtr III
|    H           E   E  +E.   S    q     Q.         E  +E.   S
||------------------------------|------------------------------|
||o-----------------------------|------------------------------|
||o-----------------------------|------------------------------|
||------------------10-(10)s==6-|--3---------------10-(10)s==6-|


   E  E  E   E  +E    E   E  E    E  E  E   E  E E E E
|------------------------------|------------------------|
|------------------------------|------------------------|
|------------------------------|------------------------|
|-10-12-10--12-(12)\--0---0--0-|-15-17-10--12-12-0-0-0--|
|
|  q     Q.           E  +E  E    q     H.
|------------------------------|------------------------|
|------------------------------|------------------------|
|------------------------------|------------------------|
|--3-----------------10-(10)S9S|==5---------------------|


  1.
   E  E  E  E  +E    E   E  E      E  E  E   E  E   E   E  E
|-------------------------------|------------------------------|
|-------------------------------|------------------------------|
|-------------------------------|------------------------------|
|-10-12-10-12-(12)\--0---0--0---|-15-17-10--12-12\--0---0--0---|
|
|  H            E    E  +E.   S    q     Q.         E  +E.   S
|-------------------------------|------------------------------|
|-------------------------------|------------------------------|
|-------------------------------|------------------------------|
|-------------------10-(10)s==6-|--3---------------10-(10)s==6-|


   E  E  E   E  +E    E   E  E    E  E  E   E  +E   E E E
|------------------------------|---------------------------||
|------------------------------|--------------------------o||
|------------------------------|--------------------------o||
|-10-12-10--12-(12)\--0---0--0-|-15-17-10--12-(12)\-0-0-0--||
|
|  q     Q.           E  +E  E    q     H.
|------------------------------|---------------------------||
|------------------------------|--------------------------o||
|------------------------------|--------------------------o||
|--3-----------------10-(10)S9S|==5------------------------||


  2.
   E  E  E  E  +E    E   E  E      E  E  E   E  E   E   E  E
|-------------------------------|------------------------------|
|-------------------------------|------------------------------|
|-------------------------------|------------------------------|
|-10-12-10-12-(12)\--0---0--0---|-15-17-10--12-12\--0---0--0---|
|
|  H            E    E  +E.   S    q     Q.         E  +E.   S
|-------------------------------|------------------------------|
|-------------------------------|------------------------------|
|-------------------------------|------------------------------|
|-------------------10-(10)s==6-|--3---------------10-(10)s==6-|


   E  E  E   E  +E    E   E  E    E  E  E   E  +Q   Q
|------------------------------|-----------------------*|
|------------------------------|-----------------------*|
|------------------------------|-----------------------*|
|-10-12-10--12-(12)\--0---0--0-|-15-17-10--12-(12)-----*|
|
|  q     Q.           E  +E  E    q     H.
|------------------------------|-----------------------*|
|------------------------------|-----------------------*|
|------------------------------|-----------------------*|
|--3-----------------10-(10)S9S|==5--------------------*|



Duration Legend
---------------
W - whole; H - half; Q - quarter; E - 8th; S - 16th; T - 32nd; X - 64th; a - acciaccatura
+ - note tied to previous; . - note dotted; .. - note double dotted
Uncapitalized letters represent notes that are staccato (1/2 duration)
Irregular groupings are notated above the duration line
Duration letters will always appear directly above the note/fret number it represents the
duration for.  Duration letters with no fret number below them represent rests.  Multi-
bar rests are notated in the form Wxn, where n is the number of bars to rest for.  Low
melody durations appear below the staff

Tablature Legend
----------------
 h   - hammer-on
 p   - pull-off
 b   - bend
 pb  - pre-bend
 r   - bend release (if no number after the r, then release immediately)
 /\  - slide into or out of (from/to "nowhere")
 s   - legato slide
 S   - shift slide
 - natural harmonic
[n]  - artificial harmonic
n(n) - tapped harmonic
 ~   - vibrato
 tr  - trill
 T   - tap
 TP  - trem. picking
 PM  - palm muting
\n/  - tremolo bar dip; n = amount to dip
 \n  - tremolo bar down
 n/  - tremolo bar up
/n\  - tremolo bar inverted dip
 =   - hold bend; also acts as connecting device for hammers/pulls
 <> - volume swell (louder/softer)
 x   - on rhythm slash represents muted slash
 o   - on rhythm slash represents single note slash

Misc Legend
-----------
 |  - bar
||  - double bar
||o - repeat start
o|| - repeat end
*|  - double bar (ending)
 :  - bar (freetime)
 $  - Segno
 &  - Coda
Tempo markers -  = BPM(8/16=s8/s16), where s8 = swing 8ths, s16 = swing 16ths

comments
We did not receive enough feedback on this tab! Please rate:
print report bad tab
1 2 3 4 5
I want to post or [tab]
guest
You may want to rate the tab now too:
select rating
Please do not post tabs as comments. Select "correction" instead!