Oops, an error
Loading. Please wait.

1000000 Tab

version 2
version 2

Whole song

Interactive

5,593 views 9 this week
1 commentread comment
1 2 3 4 5
accurate
x 5
add to favorites
launch autoscroll
font size
0
reset
how to read this tab
guitar tuner
Autoscroll
slow
fast
+/-
esc
set tempo
stop
Help us to improve Ultimate-Guitar.com Take our survey!
×
Contributor
Tuning
Straxton 105
D A D G B E
Intro: (x2)
E|-----------------|-----------------|-----------------|-----------------|
B|-----------------|-----------------|-----------------|-----------------|
G|-----------------|-----------------|-----------------|-----------------|
D|-----------------|-----------------|-----------------|-----------------|
A|-3-5-3-5---------|-3-5-3-5---------|-3-5-3-5---------|-3-5-3-5/6-5-----|
D|-----------------|-----------------|-----------------|-----------------|


Verse Part 1: (x2)
E|-----------------|-----------------|-----------------|-----------------|
B|-----------------|-----------------|-----------------|-----------------|
G|-----------------|-----------------|-----------------|-----------------|
D|-----------------|-3-5-------------|-----------------|-3-5-------------|
A|-3-5-3-5---------|-----3-5---------|-3-5-3-5---------|-----3-5/6-5-----|
D|-----------------|-----------------|-----------------|-----------------|


Verse Part 2: (x4)
E|-----------------|-----------------|-----------------|-----------------|
B|-----------------|-----------------|-----------------|-----------------|
G|-----------------|-----------------|-----------------|-----------------|
D|-----------------|-3-5-------------|-----------------|-3-5-------------|
A|-3-5-3-5/6-5-----|-----3-5/6-5-----|-3-5-3-5/6-5-----|-----3-5/6-5-----|
D|-----------------|-----------------|-----------------|-----------------|


Chorus: (x1)
E|-----------------|-----------------|-----------------|-----------------|
B|-----------------|-----------------|-----------------|-----------------|
G|-----------------|-----------------|-----------------|-----------------|
D|-5-5-5-5-5-5-5-3-|-3-3-3-3-3/8-8-8-|-----------------|-3-5-------------|
A|-5-5-5-5-5-5-5-3-|-3-3-3-3-3/8-8-8-|-3-5-3-5---------|-----3-5---------|
D|-5-5-5-5-5-5-5-3-|-3-3-3-3-3/8-8-8-|-----------------|-----------------|

E|-----------------|-----------------|-----------------|-----------------|
B|-----------------|-----------------|-----------------|-----------------|
G|-----------------|-----------------|-----------------|-----------------|
D|-5-5-5-5-5-5-5-3-|-3-3-3-3-3/8-8-8-|---------X-X-X-X-|-3-5---------X-X-|
A|-5-5-5-5-5-5-5-3-|-3-3-3-3-3/8-8-8-|-3-5-3-5-X-X-X-X-|-----3-5-----X-X-|
D|-5-5-5-5-5-5-5-3-|-3-3-3-3-3/8-8-8-|---------X-X-X-X-|-------------X-X-|

E|-----------------|-----------------|-----------------|-----------------|
B|-----------------|-----------------|-----------------|-----------------|
G|-----------------|-----------------|-----------------|-----------------|
D|-5-5-5-5-5-5-5-3-|-3-3-3-3-3/8-8-8-|-----------------|-3-5-------------|
A|-5-5-5-5-5-5-5-3-|-3-3-3-3-3/8-8-8-|-3-5-3-5/6-5-----|-----3-5/6-5-----|
D|-5-5-5-5-5-5-5-3-|-3-3-3-3-3/8-8-8-|-----------------|-----------------|

E|-----------------|-----------------|-----------------|-----------------|
B|-----------------|-----------------|-----------------|-----------------|
G|-----------------|-----------------|-----------------|-----------------|
D|-5-5-5-5-5-5-5-3-|-3-3-3-3-3/8-8-8-|-----------------|-3-5-------------|
A|-5-5-5-5-5-5-5-3-|-3-3-3-3-3/8-8-8-|-3-5-3-5---------|-----3-5---------|
D|-5-5-5-5-5-5-5-3-|-3-3-3-3-3/8-8-8-|-----------------|-----------------|


Post-Chorus: (x1)
E|-----------------|-----------------|
B|-----------------|-----------------|
G|-----------------|-----------------|
D|-----------------|-3-5-------------|
A|-3-5-3-5---------|-----3-5/6-5-----|
D|-----------------|-----------------|


Verse Part 2: (x4)


Chorus: (x2, but the second time through, cut it off at...)
E|-----------------|-----------------|
B|-----------------|-----------------|
G|-----------------|-----------------|
D|-5-5-5-5-5-5-5-3-|-3---------------|
A|-5-5-5-5-5-5-5-3-|-3---------------|
D|-5-5-5-5-5-5-5-3-|-3---------------|


Silence, then...

Verse Part 1: (x8)
Suggest correction new What's this?
You can suggest a correction to this tab. Community and Mods will review your correction and vote to approve or reject it.
comments
print report bad tab
1 comment total.
0 reply
Straxton 105 wrote on June 6 2008, 01:02 pm

This sounds pretty close to me, I tabbed it by listening to the guitar multitracks, so I heard some notes that the first tab on here missed.

guest
You may want to rate the tab now too:
select rating
Please do not post tabs as comments. Select "correction" instead!