Oops, an error
Loading. Please wait.

1000000 Tab

version 3
version 3

Whole song

Interactive

8,322 views 3 this week
3 commentsread comments
1 2 3 4 5
x 5
add to favorites
launch autoscroll
font size
0
reset
how to read this tab
guitar tuner
Autoscroll
slow
fast
+/-
esc
set tempo
stop
Help us to improve Ultimate-Guitar.com Take our survey!
×
Author
Nine Inch Nails
The Slip (2008)
Track 2: 1,000,000

Tabbed by: Peter Stevens (YoPete525 AT gmail DOT com)

Legend

/ - slide up

Measure lines are indicated, and the song is in 4/4.  Everything is played in 8th notes, and excess
empty space after chords means either rest or make noise until the end of the measure (this is
noted above where it is applied).

Guitar 1 is played live by Finck, super fuzzy and quite loud.  He uses upstrokes on the main
riff, and sometimes in other parts, although he occasionally used downstrokes or a combination
of the two in the rehearsal footage.


Guitar 1
Drop D

0:07
|----------------------|----------------------|----------------------|--------------------------| x2
|----------------------|----------------------|----------------------|--------------------------|
|----------------------|----------------------|----------------------|--------------------------|
|-10--12--10--12-------|-10--12--10--12-------|-10--12--10--12-------|-10--12--10--12--12-------|
|-10--12--10--12-------|-10--12--10--12-------|-10--12--10--12-------|-10--12--10--12--12-------|
|-10--12--10--12-------|-10--12--10--12-------|-10--12--10--12-------|-10--12--10--12--12-------|

0:21
On the second time through at the last measure, start holding the last chord of
each measure, and keep making noise rather than resting.  You can try sliding around
and adding vibrato/harmonics to spice it up.
|----------------------|----------------------|----------------------|--------------------------| x3
|----------------------|----------------------|----------------------|--------------------------|
|----------------------|----------------------|----------------------|--------------------------|
|-10--12--10--12-------|-15--17--10--12-------|-10--12--10--12-------|-15--17--10--12--12-------|
|-10--12--10--12-------|-15--17--10--12-------|-10--12--10--12-------|-15--17--10--12--12-------|
|-10--12--10--12-------|-15--17--10--12-------|-10--12--10--12-------|-15--17--10--12--12-------|
										   
|----------------------|----------------------|----------------------|--------------------------------|
|----------------------|----------------------|----------------------|--------------------------------|
|----------------------|----------------------|----------------------|--------------------------------|
|-10--12--10--12-------|-15--17--10--12--12---|-10--12--10--12-------|-15--17--10--12--12--12--12--12-|
|-10--12--10--12-------|-15--17--10--12--12---|-10--12--10--12-------|-15--17--10--12--12--12--12--12-|
|-10--12--10--12-------|-15--17--10--12--12---|-10--12--10--12-------|-15--17--10--12--12--12--12--12-|

0:50
|--------------------------------|--------------------------------| x4
|--------------------------------|--------------------------------|
|--------------------------------|--------------------------------|
|-10--12--10--12--12--12--12--12-|-15--17--10--12--12--12--12--12-|
|-10--12--10--12--12--12--12--12-|-15--17--10--12--12--12--12--12-|
|-10--12--10--12--12--12--12--12-|-15--17--10--12--12--12--12--12-|

1:03 Chorus
On the third time only, keep a stream of noise coming instead
of a rest during the third and fourth measures.
|-------------------------|---------------------------|----------------------|----------------------| x4
|-------------------------|---------------------------|----------------------|----------------------|
|-------------------------|---------------------------|----------------------|----------------------|
|--5--5--5--5--5--5--5--3-|-3--3--3--3--3/-10--10--10-|-10--12--10--12-------|-15--17--10--12-------|
|--5--5--5--5--5--5--5--3-|-3--3--3--3--3/-10--10--10-|-10--12--10--12-------|-15--17--10--12-------|
|--5--5--5--5--5--5--5--3-|-3--3--3--3--3/-10--10--10-|-10--12--10--12-------|-15--17--10--12-------|

1:32
With the exception of the very first measure, keep making noise.
|----------------------|--------------------------| x4
|----------------------|--------------------------|
|----------------------|--------------------------|
|-10--12--10--12-------|-15--17--10--12--12-------|
|-10--12--10--12-------|-15--17--10--12--12-------|
|-10--12--10--12-------|-15--17--10--12--12-------|

|----------------------|------------------------------|
|----------------------|------------------------------|
|----------------------|------------------------------|
|-10--12--10--12-------|-15--17--10--12--12--12-------|
|-10--12--10--12-------|-15--17--10--12--12--12-------|
|-10--12--10--12-------|-15--17--10--12--12--12-------|
				
1:50
|--------------------------------|--------------------------------| x4
|--------------------------------|--------------------------------|
|--------------------------------|--------------------------------|
|-10--12--10--12--12--12--12--12-|-15--17--10--12--12--12--12--12-|
|-10--12--10--12--12--12--12--12-|-15--17--10--12--12--12--12--12-|
|-10--12--10--12--12--12--12--12-|-15--17--10--12--12--12--12--12-|

2:05 Chorus
On the third, fourth, and last times this is played, keep making noise.
|-------------------------|---------------------------|----------------------|----------------------| x7
|-------------------------|---------------------------|----------------------|----------------------|
|-------------------------|---------------------------|----------------------|----------------------|
|--5--5--5--5--5--5--5--3-|-3--3--3--3--3/-10--10--10-|-10--12--10--12-------|-15--17--10--12-------|
|--5--5--5--5--5--5--5--3-|-3--3--3--3--3/-10--10--10-|-10--12--10--12-------|-15--17--10--12-------|
|--5--5--5--5--5--5--5--3-|-3--3--3--3--3/-10--10--10-|-10--12--10--12-------|-15--17--10--12-------|

2:54
|-------------------------|---------| Drop out, rest for about 11 beats (?)
|-------------------------|---------|
|-------------------------|---------|
|--5--5--5--5--5--5--5--3-|-3-------|
|--5--5--5--5--5--5--5--3-|-3-------|
|--5--5--5--5--5--5--5--3-|-3-------|

3:02
Alternate with ending this with a slide down from the 12th fret and extended noise.  On
the last cycle just cut it off at the end.
|----------------------|----------------------|----------------------|--------------------------| x8
|----------------------|----------------------|----------------------|--------------------------|
|----------------------|----------------------|----------------------|--------------------------|
|-10--12--10--12-------|-15--17--10--12-------|-10--12--10--12-------|-15--17--10--12--12-------|
|-10--12--10--12-------|-15--17--10--12-------|-10--12--10--12-------|-15--17--10--12--12-------|
|-10--12--10--12-------|-15--17--10--12-------|-10--12--10--12-------|-15--17--10--12--12-------|
Suggest correction
comments
print report bad tab
3 comments total.
0 reply
damn_fool 10 Apr 04, 2009 02:59 PM

This is the only tab that is anywhere near right for this song.Thank you

0 reply
Slap-happy 40 Jul 15, 2009 10:23 PM

It's not - it's played in standard tuning in the 8th position with single notes. That's how Finck plays it live and when I have played along it sounds correct.

0 reply
dperson379 10 Sep 13, 2014 09:20 PM

What does the 8th position mean?

guest
You may want to rate the tab now too:
select rating
Wanna post a correction for this tab? Suggest correction