Oops, an error
Loading. Please wait.

1000000 Tab

version 4
version 4

Whole song

Interactive

2,324 views 1 this week
no commentswrite comment
1 2 3 4 5
please rate
add to favorites
launch autoscroll
font size
0
reset
how to read this tab
guitar tuner
Tab Pro tools
  • play this tab
  • loop segment
  • change instrument
  • show fretboard
  • metronome
×
Best way to learn
"1000000"
Autoscroll
slow
fast
+/-
esc
set tempo
stop
Difficulty
Tuning
novice
D A D G B E
Drop D

intro riff
e|-----------------------------------------------------------|
b|-----------------------------------------------------------|
g|-----------------------------------------------------------|
d|-10-12-10-12|-10-12-10-12|-10-12-10-12|-10-12-10-12s13s12--|
a|-10-12-10-12|-10-12-10-12|-10-12-10-12|-10-12-10-12s13s12--|
d|-10-12-10-12|-10-12-10-12|-10-12-10-12|-10-12-10-12s13s12--|

main riff
e|---------------------------|
b|---------------------------|
g|---------------------------|
d|-10-12-10-12|-15-17-10-12--|
a|-10-12-10-12|-15-17-10-12--|
d|-10-12-10-12|-15-17-10-12--|


pre-chorus effect (heavy distortion)
e|-----------------------|
b|-----------------------|
g|12b (feed back effect)
d|-----------------------|
a|-----------------------|
d|-----------------------|(x4)
^After all this time, and I still haven't found my place^
on the fourth time slide down

chorus

e|---------------------------------------------------------|
b|---------------------------------------------------------|
g|---------------------------------------------------------|
d|-5-5-5-5-5-5-5|-3-3-3-3-3-3-3|-10-12-10-12|-15-17-10-12--|
a|-5-5-5-5-5-5-5|-3-3-3-3-3-3-3|-10-12-10-12|-15-17-10-12--|
d|-5-5-5-5-5-5-5|-3-3-3-3-3-3-3|-10-12-10-12|-15-17-10-12--|

e|------------------------------------------------------------------------|
b|------------------------------------------------------------------------|
g|------------------------------------------------------------------------|
d|-5-5-5-5-5-5-5|-3-3-3-3-3-3-3|-10-12-10-12|-x-x-x-x-x|-15-17-10-12|-x-x-|
a|-5-5-5-5-5-5-5|-3-3-3-3-3-3-3|-10-12-10-12|-x-x-x-x-x|-15-17-10-12|-x-x-|
d|-5-5-5-5-5-5-5|-3-3-3-3-3-3-3|-10-12-10-12|-x-x-x-x-x|-15-17-10-12|-x-x-|

the "x"'s are muted on but not palm muted
comments
We did not receive enough feedback on this tab! Please rate:
print report bad tab
1 2 3 4 5
I want to post or [tab]
guest
You may want to rate the tab now too:
select rating
Please do not post tabs as comments. Select "correction" instead!