Oops, an error
Loading. Please wait.

12 Ghosts Ii Bass Tab

version 1
version 1

Whole song

Interactive

1,044 views 1 this week
no commentswrite comment
1 2 3 4 5
2 more votes to show rating
add to favorites
launch autoscroll
font size
0
reset
guitar tuner
Autoscroll
slow
fast
+/-
esc
set tempo
stop
Help us to improve Ultimate-Guitar.com Take our survey!
×
Author
[1:04]

G|----------------------------------------------------------------------|
D|----------------------------------------------------------0-0-1-1-----|
A|----------------------------------------------------------------------|
E|--3-3-3-3-3-3-3-3-3-3-3-3-3-3-3-3-3-3-3-3-3-3-3-3-3-3-3-3-------------|

G|----------------------------------------------------------------------|
D|----------------------------------------------------------0-0-1-1-----|
A|------------------3-3-3-3-3-3-3-3-------------------------------------|
E|--1-1-1-1-1-1-1-1-----------------3-3-3-3-3-3-3-3-3-3-3-3-------------|

G|--------------------------------------|
D|--------------------------------------|
A|------------------3-3-3-3-3-3-3-3-----| x2
E|--1-1-1-1-1-1-1-1---------------------|


[2:00]

G|------------------------------------------------------------------|
D|------------------------------------------------------------------|
A|------------------------------------------------------------------| x1
E|--3-3-3-3-3-3-3-3-3-3-3-3-3-3-3-3-3-3-3-3-3-3-3-3-3-3---3-3-3-----|
Suggest correction
Give kudos to tab author, rate the tab!
1 2 3 4 5
comments
print report bad tab
guest
You may want to rate the tab now too:
select rating
Wanna post a correction for this tab? Suggest correction