Oops, an error
Loading. Please wait.

13 Ghosts Ii Chords

1,198 views 18 this week
no commentswrite comment
1 2 3 4 5
please rate
add to favorites
launch autoscroll
font size
0
reset
transpose
0
reset
simplify chords
display chords
guitar tuner
Tab Pro tools
  • play this tab
  • loop segment
  • change instrument
  • show fretboard
  • metronome
×
Best way to learn
"13 Ghosts Ii"
Autoscroll
slow
fast
+/-
esc
set tempo
stop
Contributor
Difficulty
novice
-----------------------------------------------------------------
13 Ghosts II - Nine Inch Nails
-----------------------------------------------------------------
Tabbed by:      Edaemus 
Email:          You wish. 

Tuning:         Standard (EADGBe) 

This is pretty simple. 
No, it's not exactly what Trent is playing on the piano, but that just 
wouldn't work on guitar and this sounds good. I know for a fact that the other tab 
on here is crap. 
So there. :)


   G    C    G    C  Gmaj7 Cmaj7 Gadd9  Cadd9
e|------0---------0----2--3--------------------------------------|
B|-0---------0---------------0----------3------------------------|
G|--------------------------------2---0--------------------------| And repeat. 
D|------2---------2----------2----------2------------------------| Simple! 
A|-2----3----2----3----2-----3----2-----3------------------------|
E|-3---------3---------3----------3------------------------------|

Sorry if it's a bit cramped. 
And I wouldn't call this a chord thing. This is a tab. But whatever, you go 
ahead and call it chords. 
comments
We did not receive enough feedback on this tab! Please rate:
print report bad tab
1 2 3 4 5
I want to post or [tab]
guest
You may want to rate the tab now too:
select rating
Please do not post tabs as comments. Select "correction" instead!