Oops, an error
Loading. Please wait.

26 Ghosts Bass Tab

1,009 views 3 this week
no commentswrite comment
1 2 3 4 5
1 last vote to show rating
add to favorites
launch autoscroll
font size
0
reset
guitar tuner
Autoscroll
slow
fast
+/-
esc
set tempo
stop
Help us to improve Ultimate-Guitar.com Take our survey!
×
Difficulty
Tuning
novice
D# G# C# F# A# D#
G=---------------------------------|
D=------------x6-x4----------------|
A=-4h66-4-----------x4--6----------|
Eb --------0-0---------------------|

Some alternate fills
G=----------------------------------|
D=------4------x6-x4----------------|
A=-4h66--------------x4--6----------|
Eb --------0-0----------------------|

G=----------------------------------|
D=------4------x6-x4----------------|
A=-456---------------x4--6----------|
Eb --------0-0----------------------|

jt@berg-whitt.com
if you want me to clarify something email me
i can figure most things out CORRECTLY by ear for the most part
i'm so sick of tab sites being filled with shit made by idiots
someone's gotta do shit right around here...
Suggest correction
Give kudos to tab author, rate the tab!
1 2 3 4 5
comments
print report bad tab
guest
You may want to rate the tab now too:
select rating
Wanna post a correction for this tab? Suggest correction