Oops, an error
Loading. Please wait.

999999 Bass Tab

version 1
version 1

Whole song

Interactive

750 views 1 this week
no commentswrite comment
1 2 3 4 5
please rate
add to favorites
launch autoscroll
font size
0
reset
guitar tuner
Autoscroll
slow
fast
+/-
esc
set tempo
stop
Help us to improve Ultimate-Guitar.com Take our survey!
×
#----------------------------------PLEASE NOTE---------------------------------#
#This file is the author's own work and represents their interpretation of the #
#song. You may only use this file for private study, scholarship, or research. #
#------------------------------------------------------------------------------#

999,999 (Bassline)
As recorded by Nine Inch Nails
(From the 2008 Album THE SLIP)

Transcribed by Mitchell Gardner
	

Words by Trent Reznor Music by Nine Inch Nails

Gtr I (E A D G) - 'Bass (Dist.)'
Gtr II (E A D G) - 'Synth'

  Q=91
 4/4
  Gtrs I, II
  Wx4
|--------||
|--------||
|--------||
|--------||


  <
                        |-3-|                  |-3-|
  E +Q   E +Q.   +E     E E E E E +Q.   +E     E E E E E +Q.   +E
|---------------------|----------------------|-----------------------|
|---------------------|----------------------|-----------------------|
|---------------------|----------------------|-----------------------|
|-2-(2)s=8-(8)---(8)\-|-x-x-x-2s8-(8)---(8)\-|-x-x-x-2s8-(8)---(8)\--|


  |-3-|                  |-3-|
  E E E E E +Q.   +E     E E E E E +Q.   +E     Q  E E +Q.   +E
|----------------------|----------------------|--------------------||
|----------------------|----------------------|--------------------||
|----------------------|----------------------|--------------------||
|-x-x-x-2s8-(8)---(8)\-|-x-x-x-2s8-(8)---(8)\-|----2s8-(8)---(8)\--||


    |-3-|
    E E E E E +Q.   +E     Q  E E +Q.   +E
||-----------------------|-------------------|
||o----------------------|-------------------|
||o----------------------|-------------------|
||--x-x-x-2s8-(8)---(8)\-|----2s8-(8)---(8)\-|


  |-3-|
  E E E E E +Q.   +E     Q  E E +Q.   +E
|----------------------|---------------------||
|----------------------|--------------------o||
|----------------------|--------------------o||
|-x-x-x-2s8-(8)---(8)\-|----2s8-(8)---(8)\---||


  |-3-|                  |-3-|
  E E E E E +Q.   +E     E E E E E +Q.   +E
|----------------------|----------------------|
|----------------------|----------------------|
|----------------------|----------------------|
|-x-x-x-2s8-(8)---(8)\-|-x-x-x-2s8-(8)---(8)\-|


                            <
  |-3-|
  E E E E E +Q.   +E     Q  E E +Q.   +E
|----------------------|--------------------||
|----------------------|--------------------||
|----------------------|--------------------||
|-x-x-x-2s8-(8)---(8)\-|----2s8-(8)---(8)\--||


    |-3-|                  |-3-|
    E E E E E +Q.   +E     E E E E E +Q.   +E
||-----------------------|----------------------|
||o----------------------|----------------------|
||o----------------------|----------------------|
||--x-x-x-2s8-(8)---(8)\-|-x-x-x-2s8-(8)---(8)\-|


  |-3-|                  |-3-|
  E E E E E +Q.   +E     E E E E E +Q.   +E
|----------------------|------------------------||
|----------------------|-----------------------o||
|----------------------|-----------------------o||
|-x-x-x-2s8-(8)---(8)\-|-x-x-x-2s8-(8)---(8)\---||


  |-3-|                  |-3-|
  E E E E E +Q.   +E     E E E E E +Q.   +E
|----------------------|----------------------|
|----------------------|----------------------|
|----------------------|----------------------|
|-x-x-x-2s8-(8)---(8)\-|-x-x-x-2s8-(8)---(8)\-|


  |-3-|                  |-3-|
  E E E E E +Q.   +E     E E E E E +Q.   +E
|----------------------|----------------------||
|----------------------|----------------------||
|----------------------|----------------------||
|-x-x-x-2s8-(8)---(8)\-|-x-x-x-2s8-(8)---(8)\-||


 How did I slip into...
             2/4
  W           H
|----------||------*|
|----------||------*|
|----------||------*|
|----------||------*|



Duration Legend
---------------
W - whole; H - half; Q - quarter; E - 8th; S - 16th; T - 32nd; X - 64th; a - acciaccatura
+ - note tied to previous; . - note dotted; .. - note double dotted
Uncapitalized letters represent notes that are staccato (1/2 duration)
Irregular groupings are notated above the duration line
Duration letters will always appear directly above the note/fret number it represents the
duration for.  Duration letters with no fret number below them represent rests.  Multi-
bar rests are notated in the form Wxn, where n is the number of bars to rest for.  Low
melody durations appear below the staff

Tablature Legend
----------------
 h   - hammer-on
 p   - pull-off
 b   - bend
 pb  - pre-bend
 r   - bend release (if no number after the r, then release immediately)
 /\  - slide into or out of (from/to "nowhere")
 s   - legato slide
 S   - shift slide
 - natural harmonic
[n]  - artificial harmonic
n(n) - tapped harmonic
 ~   - vibrato
 tr  - trill
 T   - tap
 TP  - trem. picking
 PM  - palm muting
\n/  - tremolo bar dip; n = amount to dip
 \n  - tremolo bar down
 n/  - tremolo bar up
/n\  - tremolo bar inverted dip
 =   - hold bend; also acts as connecting device for hammers/pulls
 <> - volume swell (louder/softer)
 x   - on rhythm slash represents muted slash
 o   - on rhythm slash represents single note slash

Misc Legend
-----------
 |  - bar
||  - double bar
||o - repeat start
o|| - repeat end
*|  - double bar (ending)
 :  - bar (freetime)
 $  - Segno
 &  - Coda
Tempo markers -  = BPM(8/16=s8/s16), where s8 = swing 8ths, s16 = swing 16ths

Suggest correction
Give kudos to tab author, rate the tab!
1 2 3 4 5
comments
print report bad tab
guest
You may want to rate the tab now too:
select rating
Wanna post a correction for this tab? Suggest correction