Oops, an error
Loading. Please wait.

999999 Tab

version 1
version 1

Whole song

Interactive

667 views 3 this week
1 commentread comment
1 2 3 4 5
3 more votes to show rating
add to favorites
launch autoscroll
font size
0
reset
how to read this tab
guitar tuner
Autoscroll
slow
fast
+/-
esc
set tempo
stop
Help us to improve Ultimate-Guitar.com Take our survey!
×
#----------------------------------PLEASE NOTE---------------------------------#
#This file is the author's own work and represents their interpretation of the #
#song. You may only use this file for private study, scholarship, or research. #
#------------------------------------------------------------------------------#

999,999
As recorded by Nine Inch Nails
(From the 2008 Album THE SLIP)

Transcribed by Mitchell Gardner
        

Words by Trent Reznor Music by Nine Inch Nails

Gtr I (E A D G B E) - 'Drone Synth'
Gtr II (E A D G B E) - 'Synth'

  Q=91
  N.C.
 4/4
  Gtr I
               <
  Wx2          W          +W
|------------|----------|--------||
|------------|----------|--------||
|------------|-5--------|-(5)----||
|------------|----------|--------||
|------------|-2--------|-(2)----||
|------------|----------|--------||


  N.C.
  W          +W           +W
|----------|------------|--------|
|----------|------------|--------|
|-5--------|-(5)--------|-(5)----|
|----------|------------|--------|
|-2--------|-(2)--------|-(2)----|
|----------|------------|--------|


  +W           +W           +W
|------------|------------|--------||
|------------|------------|--------||
|-(5)--------|-(5)--------|-(5)----||
|------------|------------|--------||
|-(2)--------|-(2)--------|-(2)----||
|------------|------------|--------||


  N.C.
  Gtr I
    W           +W           +W                    +W
|-------------|------------|--------------------|--------------|
|-------------|------------|--------------------|--------------|
|---5---------|-(5)--------|-(5)----------------|--(5)---------|
|-------------|------------|--------------------|--------------|
|---2---------|-(2)--------|-(2)----------------|--(2)---------|
|-------------|------------|--------------------|--------------|
|
| Gtr II
|   <                              <
|   W            W            E    E   +H.         +e  E H.
|-(12)--------|------------|-----(14)-(14)------|-(14)---------|
|-------------|------------|--------------------|--------------|
|---9---------|------------|------11--(11)------|-(11)---------|
|-------------|------------|--------------------|--------------|
|-------------|------------|--------------------|--------------|
|-------------|------------|--------------------|--------------|


   +W           +W           +W                    +W
|-------------|------------|--------------------|--------------|
|-------------|------------|--------------------|--------------|
|--(5)--------|-(5)--------|-(5)----------------|--(5)---------|
|-------------|------------|--------------------|--------------|
|--(2)--------|-(2)--------|-(2)----------------|--(2)---------|
|-------------|------------|--------------------|--------------|
|
|   <                              <
|   W            W            E    E   +H.         +e  E H.
|-(12)--------|------------|-----(14)-(14)------|-(14)---------|
|-------------|------------|--------------------|--------------|
|---9---------|------------|------11--(11)------|-(11)---------|
|-------------|------------|--------------------|--------------|
|-------------|------------|--------------------|--------------|
|-------------|------------|--------------------|--------------|


   +W           +W           +W                    +W
|-------------|------------|--------------------|--------------||
|-------------|------------|--------------------|--------------||
|--(5)--------|-(5)--------|-(5)----------------|--(5)---------||
|-------------|------------|--------------------|--------------||
|--(2)--------|-(2)--------|-(2)----------------|--(2)---------||
|-------------|------------|--------------------|--------------||
|
|   <                              <
|   W            W            E    E   +H.         +e  E H.
|-(12)--------|------------|-----(14)-(14)------|-(14)---------||
|-------------|------------|--------------------|--------------||
|---9---------|------------|------11--(11)------|-(11)---------||
|-------------|------------|--------------------|--------------||
|-------------|------------|--------------------|--------------||
|-------------|------------|--------------------|--------------||


  N.C.
    W           +W           +W                    +W
|-------------|------------|--------------------|--------------|
|-------------|------------|--------------------|--------------|
|---5---------|-(5)--------|-(5)----------------|--(5)---------|
|-------------|------------|--------------------|--------------|
|---2---------|-(2)--------|-(2)----------------|--(2)---------|
|-------------|------------|--------------------|--------------|
|
|   <                              <
|   W            W            E    E   +H.         +e  E H.
|-(12)--------|------------|-----(14)-(14)------|-(14)---------|
|-------------|------------|--------------------|--------------|
|---9---------|------------|------11--(11)------|-(11)---------|
|-------------|------------|--------------------|--------------|
|-------------|------------|--------------------|--------------|
|-------------|------------|--------------------|--------------|


     +W           +W           +W                    +W
||--------------|------------|--------------------|---------------||
||o-------------|------------|--------------------|--------------o||
||---(5)--------|-(5)--------|-(5)----------------|--(5)----------||
||--------------|------------|--------------------|---------------||
||o--(2)--------|-(2)--------|-(2)----------------|--(2)---------o||
||--------------|------------|--------------------|---------------||
|
|     <                              <
|     W            W            E    E   +H.         +e  E H.
||--(12)--------|------------|-----(14)-(14)------|-(14)----------||
||o-------------|------------|--------------------|--------------o||
||----9---------|------------|------11--(11)------|-(11)----------||
||--------------|------------|--------------------|---------------||
||o-------------|------------|--------------------|--------------o||
||--------------|------------|--------------------|---------------||


 How did I slip into...
  N.C.
             2/4
  W           H
|----------||------*|
|----------||------*|
|----------||------*|
|----------||------*|
|----------||------*|
|----------||------*|



Duration Legend
---------------
W - whole; H - half; Q - quarter; E - 8th; S - 16th; T - 32nd; X - 64th; a - acciaccatura
+ - note tied to previous; . - note dotted; .. - note double dotted
Uncapitalized letters represent notes that are staccato (1/2 duration)
Irregular groupings are notated above the duration line
Duration letters will always appear directly above the note/fret number it represents the
duration for.  Duration letters with no fret number below them represent rests.  Multi-
bar rests are notated in the form Wxn, where n is the number of bars to rest for.  Low
melody durations appear below the staff

Tablature Legend
----------------
 h   - hammer-on
 p   - pull-off
 b   - bend
 pb  - pre-bend
 r   - bend release (if no number after the r, then release immediately)
 /\  - slide into or out of (from/to "nowhere")
 s   - legato slide
 S   - shift slide
 - natural harmonic
[n]  - artificial harmonic
n(n) - tapped harmonic
 ~   - vibrato
 tr  - trill
 T   - tap
 TP  - trem. picking
 PM  - palm muting
\n/  - tremolo bar dip; n = amount to dip
 \n  - tremolo bar down
 n/  - tremolo bar up
/n\  - tremolo bar inverted dip
 =   - hold bend; also acts as connecting device for hammers/pulls
 <> - volume swell (louder/softer)
 x   - on rhythm slash represents muted slash
 o   - on rhythm slash represents single note slash

Misc Legend
-----------
 |  - bar
||  - double bar
||o - repeat start
o|| - repeat end
*|  - double bar (ending)
 :  - bar (freetime)
 $  - Segno
 &  - Coda
Tempo markers -  = BPM(8/16=s8/s16), where s8 = swing 8ths, s16 = swing 16ths

Suggest correction
Give kudos to tab author, rate the tab!
1 2 3 4 5
comments
print report bad tab
1 comment total.
0 reply
the_jackyl 1,500 Oct 12, 2009 02:56 AM

...you can't be serious.

guest
You may want to rate the tab now too:
select rating
Wanna post a correction for this tab? Suggest correction