Oops, an error
Loading. Please wait.

All Time Low Tab

version 2
version 2

Whole song

886 views 6 this week
no commentswrite comment
1 2 3 4 5
1 last vote to show rating
add to favorites
launch autoscroll
font size
0
reset
how to read this tab
guitar tuner
Autoscroll
slow
fast
+/-
esc
set tempo
stop
Help us to improve Ultimate-Guitar.com Take our survey!
×
Author
Difficulty
intermediate
-------------------------------------------------------------------------------
                             ALL TIME LOW - Nine Inch Nails
-------------------------------------------------------------------------------
Tabbed by: Steph J
E-mail: steph.is.not@gmail.com

Tuning:EADGBe


Intro:

e|-----------------------|
B|-----------------------|
G|-----------------------|
D|-5b7r5--8b10~----------| (x4)
A|-----------------------|
E|-----------------------|

Verse:

[Main riff] "Go, I've heard all I need to know..."
e|-----------------------------------|
B|-----------------------------------|
G|----------10---10-13----10----10---|  (x3)
D|-10-12-13------------10----12------|
A|-----------------------------------|
E|-----------------------------------|

"Your voice in fucking echo stereo.."
e|-----------------------------------|
B|-----------------------------------|
G|----------10---10-13-----10--------|  
D|-10-12-13------------10------------|
A|-----------------------------------|
E|-----------------------------------|

[Main riff x3]

"Looks like another all time low..."
e|------------------------------------|
B|---------------------10----12-------|
G|----------10---11-11----10----------|
D|-10-12-13---------------------------|
A|------------------------------------|
E|------------------------------------|

[Repeat same progression as above]


[Pre-Chorus] "Get down on the floor..."
e|-----------------------------------|
B|--------13h15---------13h15--------|
G|-----------------------------------|  (x8)
D|-10h12---------10h12---------------|
A|-----------------------------------|
E|-----------------------------------|


[Chorus] "So give me just a little, baby.." Let this note ring for as long as you can.
e|-----------------------------------|
B|-----------------------------------|
G|-7~~~~~~~~~~~~~~~~~~~~~------------|
D|-----------------------------------|
A|-----------------------------------|
E|-----------------------------------|

"It's gonna last forever baby..."
e|-----------------------------------|
B|-----------------------------------|
G|-7~~---9-10--10/13~~---------------| (x4)
D|-----------------------------------|
A|-----------------------------------|
E|-----------------------------------|

"...and stretch across the sky.   I'll follow right behind you, baby..."
e|------------------------------------------------------------------------------|
B|--------------------------------------------------10~~---12-12-13~~----15~~---|
G|----------------------------7~~---9-10--10/13~~-------------------------------|
D|------------------------------------------------------------------------------|
A|------------------------------------------------------------------------------|
E|------------------------------------------------------------------------------|

[Intro]

[Main riff cycle]

                   "...This paranoia turns to fear"
e|------------------------------------------------------------------------------|
B|------------------------------------------------------------------------------|
G|----------10---10---------------10-13----10----------------------10-----------|  
D|-10-12-13-----------------------------10----12----------10-12-13--------------|
A|------------------------------------------------------------------------------|
E|------------------------------------------------------------------------------|

"Just who was whispering in your ear?..."
e|------------------------------------------------------------------------------|
B|------------------------------------------------------------------------------|
G|----------10---------------------------------------------------10--10---------|  
D|-10-12-13----------------12-10-12-10------------------10-12-13----------------|
A|------------------------------------------------------------------------------|
E|------------------------------------------------------------------------------|

"Pretending, but I know you hear"
e|------------------------------------------------------------------------------|
B|------------------------------------------------------------------------------|
G|----------10-13----10----------------------10--10-----------------------------|  
D|----------------10----12----------10-12-13------------------------------------|
A|------------------------------------------------------------------------------|
E|------------------------------------------------------------------------------|

"Just how'd we fucking end up here?"
e|------------------------------------------------------------------------------|
B|------------------------------------------------------------------------------|
G|----------10------------------------------------------------------------------|  
D|-10-12-13------------12-10-12-10----------------------------------------------|
A|------------------------------------------------------------------------------|
E|------------------------------------------------------------------------------|

[Chorus]

[Outro]: You can just improvise and do your own thing!




Lastly, if you want to play the main riff like Robin does live:

e|--------------------------------------------------|
B|------------------10b11-------------------10b11---|
G|----------10b11---10b11--13----10b11------10b11---| 
D|-10-12-13-------------------10-------12-----------|
A|--------------------------------------------------|
E|--------------------------------------------------|

"Looks like another all time low"
e|------------------------------------------------|
B|-----------------------13-13-x-x--13-13-13-13---|
G|----------10b11--------11-11-x-x--11-11-11-11---|  
D|-10-12-13--------------12-12-x-x--12-12-12-12---|
A|------------------------------------------------|
E|------------------------------------------------|


************************************

| /   slide up
| \   slide down
| h   hammer-on
| p   pull-off
| ~   vibrato
| +   harmonic
| x   Mute note
| b   Bend
| pb  Pre-bend
| br  Bend release
| pbr Pre-bend release
| brb Bend release bend

************************************
Suggest correction
Give kudos to tab author, rate the tab!
1 2 3 4 5
comments
print report bad tab
guest
You may want to rate the tab now too:
select rating
Wanna post a correction for this tab? Suggest correction