Oops, an error
Loading. Please wait.

And All That Could Have Been Bass Tab

version 1
version 1

Whole song

Interactive

3,498 views 3 this week
no commentswrite comment
1 2 3 4 5
2 more votes to show rating
add to favorites
launch autoscroll
font size
0
reset
guitar tuner
Autoscroll
slow
fast
+/-
esc
set tempo
stop
Help us to improve Ultimate-Guitar.com Take our survey!
×
Author
Difficulty
intermediate
This is based on the CD version
(The G string must be tuned to a high A
and the A sting to a high B
its risky but but its the only way!)


~ = let it ring
h = hammer on
X = Palm Mute (Harmonics)

(Reverb is used in the song!)
Intro/Verse:(This is played 4 times after Intro!)
A |-18-18-18-18h19-18-13-14-16-18-18-18-18-18-18-18-18-|
D |-18-18-18-18-18-18-11-13-14-18-18-18-18-18-18-18-18-|
Bb|----------------------------------------18-18-18-18-|
D |----------------------------------------------------|

A |-18-18-18-18h19-18-13-14-16-18-18-18-18-18-18-18-18-|
D |-18-18-18-18-18-18-11-13-14-18-18-18-18-18-18-18-18-|
Bb|----------------------------------------------------|
D |----------------------------------------------------|

Interlude:X2 (Play This Part Twice!)
A |-------------------------------------|
D |-------------------------------------|
Bb|-------------------------------------|
D |-11-11-X-X-X-X-X-X-14-14-X-X-X-X-X-X-|

A |---------------------------------|
D |---------------------------------|
Bb|---------------------------------|
D |-7-7-X-X-X-X-X-X-4-4-X-X-X-X-X-X-|

Verse:X4
A |-18-18-18-18h19-18-13-14-16-18-18-18-18-18-18-18-18-|
D |-18-18-18-18-18-18-11-13-14-18-18-18-18-18-18-18-18-|
Bb|----------------------------------------18-18-18-18-|
D |----------------------------------------------------|

A |-18-18-18-18h19-18-13-14-16-18-18-18-18-18-18-18-18-|
D |-18-18-18-18-18-18-11-13-14-18-18-18-18-18-18-18-18-|
Bb|----------------------------------------------------|
D |----------------------------------------------------|

Chorus:X4
A |-------------------------------------------------|
D |-------------------------------------------------|
Bb|-------------------------------------------------|
D |-11-11-11-11-11-11-11-11-14-14-14-14-14-14-14-14-|

A |---------------------------------|
D |---------------------------------|
Bb|---------------------------------|
D |-7-7-7-7-7-7-7-7-4-4-4-4-4-4-4-4-|

Brigde:X4
A |---------------------------------------------------|
A |---------------------------------------------------|
Bb|---------------------------------------------------|
D |-4-4-4-4-4-4-7-7-7-7-7-7-2-2-2-2-2-2-2-2-2-2-1-1-1-|

Verse:X4
A |-18-18-18-18h19-18-13-14-16-18-18-18-18-18-18-18-18-|
D |-18-18-18-18-18-18-11-13-14-18-18-18-18-18-18-18-18-|
Bb|----------------------------------------18-18-18-18-|
D |----------------------------------------------------|

A |-18-18-18-18h19-18-13-14-16-18-18-18-18-18-18-18-18-|
D |-18-18-18-18-18-18-11-13-14-18-18-18-18-18-18-18-18-|
Bb|----------------------------------------------------|
D |----------------------------------------------------|

Chorus:X8
A |-------------------------------------------------|
D |-------------------------------------------------|
Bb|-------------------------------------------------|
D |-11-11-11-11-11-11-11-11-14-14-14-14-14-14-14-14-|

A |---------------------------------|
D |---------------------------------|
Bb|---------------------------------|
D |-7-7-7-7-7-7-7-7-4-4-4-4-4-4-4-4-|
Suggest correction
Give kudos to tab author, rate the tab!
1 2 3 4 5
comments
print report bad tab
guest
You may want to rate the tab now too:
select rating
Wanna post a correction for this tab? Suggest correction