Oops, an error
Loading. Please wait.

Another Version Of The Truth Tab

version 1
version 1

Whole song

Interactive

2,355 views 9 this week
no commentswrite comment
1 2 3 4 5
excellent!
x 4
add to favorites
launch autoscroll
font size
0
reset
how to read this tab
guitar tuner
Autoscroll
slow
fast
+/-
esc
set tempo
stop
Help us to improve Ultimate-Guitar.com Take our survey!
×
Author
Standard tuning


 00:17
 
 Q=90

E|----------------|-7------5------|---------------|-10------------|
B|------------5---|---------------|-8-------------|---------------|
G|--------8-------|---------------|-0-------------|-10------------|
D|-7--------------|---------------|---------------|---------------|
A|----------------|---------------|---------------|-8-------------|
E|----------------|---------------|---------------|---------------|


E|-9--------------|-7------5------|---------------|-10------------|
B|------------5---|---------------|-8-------------|---------------|
G|-9------8-------|---------------|-0-------------|--------10-----|
D|----------------|---------------|---------------|---------------|
A|-0--------------|---------------|---------------|-8-------------|
E|----------------|---------------|---------------|---------------|


e|-9--------------|-7------5------|---------------|---------------|
B|------------5---|---------------|-8-------------|---------------|
G|-9------8-------|---------------|-0-------------|---5----10-----|
D|----------------|---------------|---------------|-0-------------|
A|-0--------------|---------------|---------------|---------------|
E|----------------|---------------|---------------|---------------|


e|-9--------------|-7------5------|---------------|--------7------|
B|------------5---|---------------|-8-------------|---------------|
G|-9------8-------|---------------|-0------0------|---------------|
D|----------------|---------------|---------------|-0------0------|
A|-0--------------|---------------|---------------|---------------|
E|----------------|---------------|---------------|---------------|

e|-8--------------|-7------5------|---------------|--------10-----|
B|------------5---|---------------|-8-------------|---------------|
G|--------8-------|---------------|-0-------------|--------10-----|
D|----------------|---------------|---------------|-0-------------|
A|-0--------------|---------------|---------------|---------------|
E|----------------|---------------|--------3------|---------------|


e|-0--------------|-7------5------|---------------|---------------|
B|------------5---|---------------|-12-----13-----|---------------|
G|--------8-------|---------------|-0------0------|-10-----9---7--|
D|----------------|---------------|---------------|--------0------|
A|-0--------------|---------------|---------------|---------------|
E|----------------|---------------|---------------|---------------|


e|----------------|-7------5------|---------------|--------10-----|
B|------------5---|---------------|-8-------------|---------------|
G|-6------8-------|---------------|-0------0------|---5----10-----|
D|----------------|---------------|---------------|-0-------------|
A|-0--------------|---------------|---------------|---------------|
E|----------------|---------------|---------------|---------------|


e|----------------|-7------5------|-8--10-----15--|--------10-----|
B|------------5---|---------------|--------0------|---------------|
G|-9------8-------|---------------|-0-------------|---------------|
D|----------------|---------------|---------------|-0------0------|
A|-0--------------|---------------|---------------|---------------|
E|----------------|---------------|---------------|---------------|




 01:52

 Q=80

e|----------------|---------------|---------------|---------------|
B|-0--------------|-0-------------|---------------|----3-------1--|
G|-0--------------|-0------2------|-5-------------|----------0----|
D|----------------|---------------|-3-------------|-3------3------|
A|----------------|-3-------------|-1-------------|---------------|
E|-3--------------|---------------|---------------|---------------|


e|----------------|---------------|-1---0---------|-5-------------|
B|-0------0---1---|-0-------------|--------3---1--|---------------|
G|-0------0---0---|-0------2------|---------------|--------2------|
D|----------------|---------------|---------------|-3-------------|
A|----------------|-3-------------|-1-------------|---------------|
E|-3--------------|---------------|---------------|---------------|


e|----------------|---------------|-1---0---------|---------------|
B|-0------0---1---|-0-------------|--------1------|-----------0---|
G|-0------0---0---|-0------2------|------------0--|----2---5------|
D|----------------|---------------|---------------|-3------3------|
A|----------------|-3------3------|-1------1------|---------------|
E|-3------3-------|---------------|---------------|---------------|


e|----------------|---------------|---------------|---------------|
B|--------0---1---|-0-------------|---------------|-1-------------|
G|--------0---0---|-0------2------|-5-------------|---------------|
D|----------------|---------------|-3-------------|-3-------------|
A|--------3-------|-3-------------|-1-------------|---------------|
E|-3--------------|---------------|---------------|--------1------|


e|-----8------7---|----5----------|-----8------7--|----5----------|
B|----------------|-----------8-6-|-6-------------|------------1--|
G|-0------0-------|--------5------|---------------|----------2---4|
D|----------------|---------------|--------8------|--------3------|
A|----------------|---------------|---------------|---------------|
E|-3--------------|-8-------------|-6-------------|-1-------------|

e|-----8------7---|----5----------|-----8------7--|----5---1------|
B|----------------|-----------8-6-|---------------|----------1-1-0|
G|-0------0-------|--------5------|---------------|---------------|
D|----------------|---------------|--------8------|---------------|
A|----------------|---------------|---------------|---------------|
E|-3--------------|-8-------------|-6-------------|-1-------------|


e|-----8------7---|----5----------|-----8------7--|----5----------|
B|----------------|-----------8-6-|-6-------------|------------1--|
G|--------0-------|--------5------|---------------|--------------4|
D|----------------|---------------|--------8------|--------3------|
A|----------------|---------------|---------------|---------------|
E|-3--------------|-8-------------|-6-------------|-1-------------|

e|----------------|---------------|---------------|---------------|
B|----------------|--------0------|--------0------|--------0------|
G|----------------|-5-------------|-5-------------|-5-------------|
D|----------------|---------------|-3-------------|-3-------------|
A|----------------|-3-------------|-1-------------|---------------|
E|-3--------------|---------------|---------------|---------------|

e|----------------|---------------|---------------|---------------|-
B|-0--------------|--------0------|--------0------|-1------0------|-
G|-0--------------|-5------0------|-5------0------|--------0------|-
D|----------------|---------------|-3-------------|---------------|-
A|----------------|-3-------------|-1-------------|---------------|-
E|-3--------------|---------------|---------------|-1-------------|-3
Suggest correction
comments
print report bad tab
guest
You may want to rate the tab now too:
select rating
Please do not post tabs as comments. Select "correction" instead!