Oops, an error
Loading. Please wait.

Becoming Tab

version 1
version 1

Whole song

Interactive

10,687 views 3 this week
2 commentsread comments
1 2 3 4 5
accurate
x 10
add to favorites
launch autoscroll
font size
0
reset
how to read this tab
guitar tuner
Autoscroll
slow
fast
+/-
esc
set tempo
stop
Help us to improve Ultimate-Guitar.com Take our survey!
×
Difficulty
novice
"THE BECOMING"
-Nine Inch Nails


~Hello, this is my first attempt of tab i noticed that no one really try's for the
intro ..only the acoustic part in the middle ..so i dont have the exact on-tune beat 
i
Show you were its around so you can figure the BEAT out for yourself... so i pass what i 
to you ..hopefully it helps. (also sounds good on BASS)

[] -maybe thats in there/ play around and listen to see


~Intro

       (slightly muffed)                         (repeat)
e--------------------------------------------------------------------------|
b--------------------------------------------------------------------------|
g--------------------------------------------------------------------------|
d--------------------------------------------------------------------------|
a---------------------------1-3-4-[3]--------------------------------------|
E---3-3-3-3---4-3-1-1-3-4-3-----------4-3-3-3-[3]-4-1-1-[1]----------------|

~Acoustic     (middle part)

   (x4)   (x4) (x4) (x4)   (x4) (x4) (x4)                  (repeat)
e---3-------1----x----x------1---------1------x--x----------------------|
b---3-------1----5----3------1----5----1------x--x----------------------|
g---4-------2----5----3------2----5----2------x--x----------------------|
d---5-------3----5----3------3----5----3------x--x----------------------|
a---5-------3----3----1------3----3----3------x--x----------------------|
E---3-------1----------------1---------1------x--x----------------------|


Hope it works out for you,   Djayco
comments
print report bad tab
2 comments total.
0 reply
Medadef 11 wrote on April 5 2014, 08:34 am

Thanks man, this is the song that made me start playing guitar !

0 reply
getgetgotgot 138 wrote on July 19 2015, 03:26 pm


G--------------------------------------------------------------------------|
D-------------------------------------------------3------------------------|
A---------------------------4-2--------------------------------------------|
E---3-3-3-3---4-4-2-3-4-2-3-----3-3-3-3---4-4-1-1---1-1-1------------------|


90% sure this is the correct tab for the bass part

I want to post or [tab]
guest
You may want to rate the tab now too:
select rating
Please do not post tabs as comments. Select "correction" instead!