Oops, an error
Loading. Please wait.

Burn Bass Tab

version 2
version 2

Whole song

Interactive

1,099 views 3 this week
no commentswrite comment
1 2 3 4 5
3 more votes to show rating
add to favorites
launch autoscroll
font size
0
reset
guitar tuner
Autoscroll
slow
fast
+/-
esc
set tempo
stop
Help us to improve Ultimate-Guitar.com Take our survey!
×
Burn - By NIN
Drop D tuning


Intro/Pre Chorus (1:04 – 1:25, 2:08 – 2:29) This part is very difficult to hear. Lightly 
the 5th fret of the A string every eight beats at about 176 BPM on your metronome. Play 
part with a metronome until you get it down.
G|---------------------------------------------------------------|
D|---------------------------------------------------------------|
A|---5------------5------------5----------5----------------------|
D|---------------------------------------------------------------|

Verse (1:25 – 2:07, 2:50 – 3:33):

G|-----------------------------------------------------------------|
D|-----------------------------------------------------------------|
A|--------------3--4--5--------------------------------------------|
D|--0--6--5--------------------------------------------------------|
At 2:07 end on the 5th fret on the D string


Chorus (2:30 – 2:49, 3:34 - End) I’ll put the beats that these notes are on for help.
     1 +     3 +     4 +
G|---------------------------------------------------------------|
D|---------------------------------------------------------------|
A|-------------------3-5-----------------------------------------|
D|---0-0-----0-0-------------------------------------------------|

Repeat whenever needed.


This is my first tab. I might not be right about the Pre-Chorus but that’s what I hear! 
have tried to tab this as best as I can. I hope you have fun playing it!
Suggest correction
Give kudos to tab author, rate the tab!
1 2 3 4 5
comments
print report bad tab
guest
You may want to rate the tab now too:
select rating
Wanna post a correction for this tab? Suggest correction