Oops, an error
Loading. Please wait.

Came Back Haunted Tab

version 1
version 1

Whole song

4,835 views 3 this week
1 commentread comment
1 2 3 4 5
excellent!
x 5
add to favorites
launch autoscroll
font size
0
reset
how to read this tab
guitar tuner
Tab Pro tools
  • play this tab
  • loop segment
  • change instrument
  • show fretboard
  • metronome
×
Best way to learn
"Came Back Haunted"
Autoscroll
slow
fast
+/-
esc
set tempo
stop
Contributor
Song: Came Back Haunted
Artist: Nine Inch Nails
Album: Hesitation Marks
Tuning: Standard

-EDIT 7-7-13- 
I fixed up the intro, outro, and verse.

INTRO
|----------7---------7---------7---------7-| 
|------------------------------------------|
|------------------------------------------|
|------------------------------------------| 
|------------------------------------------|
|-5-7---777-5-7---777-5-7---777-5-7---777--|


VERSE
Repeats throughout song
|-----------------------------------------------------------------| 
|-----------------------------------------------------------------|
|-----------------------------------------------------------------|
|-----------------------------------------------------------------| 
|-----------------------------------------------------------------|
|-5-6--/7---5---5-5h6-6h7-7-5-6-5-5-6--/7---5---5-5h6-6h7-7-5-6-5-|


At 0:25
|-4(pb5)-d-4-b-5~-------------------------------------------------| 
|-----------------------------------------------------------------|
|-----------------------------------------------------------------|
|-----------------------------------------------------------------| 
|-----------------------------------------------------------------|
|-----------------------------------------------------------------|

0:43
Repeats till Chorus
|-15~----14~-------------------------15~----14~-------------------| 
|-------------16~--------------------------------16~--------------|
|----------------------18~--------------------------------17~-----|
|-----------------------------------------------------------------| 
|-----------------------------------------------------------------|
|-----------------------------------------------------------------|


CHORUS
2x
|-----------------------------------------------------------------| 
|-----------------------------------------------------------------|
|-----------------------------------------------------------------|
|-5-5-5-5-5-5-5-5-5-5-5-5-5-5-5-5-2-2-2-2-2-2-2-2-2-2-2-2-2-2-2-2-|
|-5-5-5-5-5-5-5-5-5-5-5-5-5-5-5-5-2-2-2-2-2-2-2-2-2-2-2-2-2-2-2-2-|
|-3-3-3-3-3-3-3-3-3-3-3-3-3-3-3-3-0-0-0-0-0-0-0-0-0-0-0-0-0-0-0-0-|

|-----------------------------------------------------------------| 
|-----------------------------------------------------------------|
|-4-4-4-4-4-4-4-4-4-4-4-4-4-4-4-4-4-4-4-4-4-4-4-4-4-4-4-4-4-4-4-4-| 
|-4-4-4-4-4-4-4-4-4-4-4-4-4-4-4-4-4-4-4-4-4-4-4-4-4-4-4-4-4-4-4-4-| 
|-2-2-2-2-2-2-2-2-2-2-2-2-2-2-2-2-2-2-2-2-2-2-2-2-2-2-2-2-2-2-2-2-|
|-----------------------------------------------------------------|

Post chorus
|-5-5-5-5-5-5\2-2/5-5-5-5-5-5-5-5-5-5-5-5-5-5\2-2/5-5-5-5-5-5-5-5-| 
|-----------------------------------------------------------------|
|-----------------------------------------------------------------|
|-----------------------------------------------------------------| 
|-----------------------------------------------------------------|
|-----------------------------------------------------------------|


VERSE II

2:06
DROP B - only if you want the correct octaves. otherwise play it an octave higher in standard.
2x
C#|-----------------------------------------------------------------| 
G#|-----------------------------------------------------------------|
E |-----------------------------------------------------------------|
B |-----------------------------------------------------------------| 
F#|-8tb-^-^-^-^-^-^-^-^-^-^-^-^-^-^-^-^-----------------------------|
B |-------------------------------------0~--------------------------|


CHORUS II (back in standard as usual)


SOLO 
              3x
|------------|-------------------------------------------------------------------| 
|------------|-------------------------------------------------------------------|
|------------|-------------------------------------------------------------------|
|-7--9--7--9-|--9-9-9-9-9-9/10---6-6-6-6-6-6/7-----------------------------------| 
|------------|-----------------------------------5-5-5-5-5-5-7---5---7---5---2---|
|------------|-------------------------------------------------------------------|


CHORUS III


OUTRO
4:25
|-----7-----7---7-----7-------7-7n*----7-----7---7-----7-------7-7n*-| 
|--------------------------------------------------------------------|
|--------------------------------------------------------------------|
|--------------------------------------------------------------------| 
|--------------------------------------------------------------------|
|-5-7---5-7-------5-7-----5-7------5-7---5-7-------5-7-----5-7-------|

4:41
3x
|--------------------------------------------------------------------| 
|--------------------------------------------------------------------|
|--------------------------------------------------------------------|
|-10---9~------------------------------------------------------------| 
|-----------------10---11~---------5--b6~---------2~-----------------|
|--------------------------------------------------------------------|

and that's it!

b- bend
pb - Prebend
n* - Natural Harmonic
/ - slide up
\ - slide down
tb - trill bend
^ - indication that bended note is to be picked
comments
print report bad tab
1 comment total.
0 reply
masterspartan wrote on February 19 2014, 10:52 pm

Your suppose to play the course on EAD and E-7 A-9 D-9.
Not A-2 D-4 G-4.

I want to post or [tab]
guest
You may want to rate the tab now too:
select rating
Please do not post tabs as comments. Select "correction" instead!