Oops, an error
Loading. Please wait.

Came Back Haunted Tab

version 2
version 2

Whole song

1,524 views 9 this week
no commentswrite comment
1 2 3 4 5
excellent!
x 2
add to favorites
launch autoscroll
font size
0
reset
how to read this tab
guitar tuner
Tab Pro tools
  • play this tab
  • loop segment
  • change instrument
  • show fretboard
  • metronome
Autoscroll
slow
fast
+/-
esc
set tempo
stop
Contributor
Difficulty
Tuning
novice
D A D G B E
-----------------------------------------------------------------------------
                             SONG NAME - Band Name
-----------------------------------------------------------------------------
Tabbed by:OsakaBoy21
E-mail:

Tuning:Drop D

I dont play the guitar until the first Chorus.

Chorus(guitar 1 + 2)
e|------------------------|    
B|------------------------|    
G|------------------------|    
D|5------/14------/9------| ×2 
A|5--×16-/14--×16-/9--×32-|    
D|5------/14------/9------|    


Bridge(guitar 1 ONLY)
e|---------|
B|---------|
G|7----4---|
D|---------|×2
A|5----2---|
D|---------|


Chorus×2


Solo Intro(gutar 1 ONLY)
e|-------------|
B|-------------|
G|14-16-14-16--|
D|-------------|×1
A|12-14-12-14--|
D|-------------|


Solo Main (first 2 times:guitar 1 ONLY, then 2 times guitar 1 + 2)
e|----------------------------------------------------------------------|
B|----------------------------------------------------------------------|
G|16-16-16-16-16-16/17---13-13-13-13-13-13/14---7-7-7-7-7-7/9---7-9-7-4-|
D|----------------------------------------------------------------------|×4
A|14-14-14-14-14-14/15---11-11-11-11-11-11/12---5-5-5-5-5-5/7---5-7-5-2-|
D|----------------------------------------------------------------------|



Chorus×3(gutar 1 + 2)


Outro
 gutar 1 ONLY
e|------------------------|
B|------------------------|
G|------------------------|
D|------------------------|
A|15-14---10-11-----------|
D|----------------12-9----|

Then...
gutar 1
| e|-----------------------||
| B|-----------------------||
| G|-----------------------||
| D|-----------------------||
| A|15-14~--10-11~---------||
| D|----------------12-9~~-||
guitar 2
| e|-----------------------||
| B|-----------------------||
| G|-----------------------||
| D|9----------------------||
| A|9--×64-----------------||
| D|9----------------------||



gutar 1                 "STOP!"
| e|---------------------||
| B|---------------------||
| G|---------------------||
| D|---------------------||
| A|15-14~--10-11~-------||
| D|----------------12-9~||
guitar 2
| e|---------------------||
| B|---------------------||
| G|---------------------||
| D|9--------------------||
| A|9--×45---------------||
| D|9--------------------||


************************************

| /   slide up
| \   slide down
| h   hammer-on
| p   pull-off
| ~   vibrato
| +   harmonic
| x   Mute note
| b   Bend
| pb  Pre-bend
| br  Bend release
| pbr Pre-bend release
| brb Bend release bend

************************************
comments
We did not receive enough feedback on this tab! Please rate:
print report bad tab
1 2 3 4 5
I want to post or [tab]
guest
You may want to rate the tab now too:
select rating
Please do not post tabs as comments. Select "correction" instead!