Oops, an error
Loading. Please wait.

Capital G Bass Tab

2,992 views 3 this week
no commentswrite comment
1 2 3 4 5
please rate
add to favorites
launch autoscroll
font size
0
reset
guitar tuner
Tab Pro tools
  • play this tab
  • loop segment
  • change instrument
  • show fretboard
  • metronome
×
Best way to learn
"Capital G"
Autoscroll
slow
fast
+/-
esc
set tempo
stop
Contributor
Standard tuning

3/4


verse

G|----------------------|----------------------|
D|----------------------|----------------------|
A|-3---------5----------|-3----3----3----5---6-|
E|----------------------|----------------------|

G|----------------------|----------------------|
D|----------------------|----------------------|
A|-3---------5----------|-3----3----3----------|
E|----------------------|----------------------|

G|----------------------|--------------------10|
D|----------------------|----------------------|
A|-3---------5----------|-3----3----3----3/8---|
E|----------------------|----------------------|

G|----------------------|----------------------|
D|----------------------|----------------------|
A|-3---------5----------|-3----3----3----------|
E|----------------------|----------------------|

G|----------------------|----------------------|
D|----------------------|----------------------|
A|-3---------5----------|-3----3----3----5---6-|
E|----------------------|----------------------|

G|----------------------|----------------------|
D|----------------------|----------------------|
A|-3---------5----------|-3----3----3--3-8-8-8-|
E|----------------------|----------------------|

G|----------------------|----------------------|
D|----------------------|----------------------|
A|-3---------5----------|-3----3----3--3-8-8---|
E|----------------------|----------------------|

G|----------------------|----------------------|
D|----------------------|----------------------|
A|-3---------5----------|-3----3----3----------|
E|----------------------|----------------------|



chorus


  x12                       x12
                           
e|-------------------------|-------------------------|
B|-------------------------|-------------------------|
G|-11----------------------|-11----------------------|
D|-------------------------|-------------------------|
A|-9-----------------------|-9-----------------------|
E|-------------------------|-------------------------|
 |
G|-------------------------|-------------------------|
D|-------------------------|-------------------------|
A|-5-5-5-5-5-5-5-5-5-1-1-1-|-1-1-1-1-1-1-1-1-1-1-1-1-|
e|-------------------------|-------------------------|


  x12                       x8

e|-------------------------|-------------------------|
B|-------------------------|-------------------------|
G|-12----------------------|-12--------------12b-----|
D|-------------------------|-------------------------|
A|-10----------------------|-10--------------10b-----|
E|-------------------------|-------------------------|
 |
G|-------------------------|-------------------------|
D|-------------------------|-------------------------|
A|-------------------------|-------------------------|
E|-1-1-1-1-1-1-1-1-1-3-3-3-|-3-3-3-3-3-3-3-3-3-------|



post-chorus

e|----------------------|----------------------|
B|----------------------|----------------------|
G|----------------------|----------------------|
D|----0-5b---5b---5b----|-5b---5b---5b-0-3---0-|
A|----------------------|----------------------|
E|----------------------|----------------------|
 |
G|----------------------|--------------------10|
D|----------------------|----------------------|
A|-3---------5----------|-3----3----3----3/8---|
E|----------------------|----------------------|


e|----------------------|----------------------|
B|----------------------|----------------------|
G|----------------------|----------------------|
D|----0-5b---5b---5b----|-5b---5b---5b-0-3---0-|
A|----------------------|----------------------|
E|----------------------|----------------------|
 |
G|----------------------|----------------------|
D|----------------------|----------------------|
A|-3---------5----------|-3----3----3----------|
E|----------------------|----------------------|

comments
We did not receive enough feedback on this tab! Please rate:
print report bad tab
1 2 3 4 5
I want to post or [tab]
guest
You may want to rate the tab now too:
select rating
Please do not post tabs as comments. Select "correction" instead!