Oops, an error
Loading. Please wait.

Capital G Tab

version 2
version 2

Whole song

2,710 views 1 this week
no commentswrite comment
1 2 3 4 5
worth learning
x 5
add to favorites
launch autoscroll
font size
0
reset
how to read this tab
guitar tuner
Autoscroll
slow
fast
+/-
esc
set tempo
stop
Help us to improve Ultimate-Guitar.com Take our survey!
×
Contributor
Tuning
DFFBoston 396
D A D G B E
Capital G
Verse (Bass)
G|----------------------|
D|---0----0----0----0h3-|
A|----------------------|
D|0-0--0-0--0-0--0-0----|

Chorus
E|-----------------------------------------------|
B|--------------------7-77-77-77-77-77-77-77-776-|
G|7-77-77-77-77-77-77----------------------------|
D|--------------------5-55-55-55-55-55-55-55-554-|
A|5-55-55-55-55-55-55----------------------------|
D|-----------------------------------------------|

Post-Chorus (Mega-bend all notes)
E|--------------|
B|--------------|
G|--------------|
D|5-5-5-5-5-5-5-|
A|-------------5|
D|--------------|

Interlude
E|-----------------|
B|-----------------|
G|-----------------|
D|-----------------|
A|----35-----------|
D|0------35-35-3---|
comments
print report bad tab
I want to post or [tab]
guest
You may want to rate the tab now too:
select rating
Please do not post tabs as comments. Select "correction" instead!