Oops, an error
Loading. Please wait.

Closer Bass Tab

version 1
version 1

Whole song

Interactive

12,407 views 1 this week
1 commentread comment
1 2 3 4 5
x 3
add to favorites
launch autoscroll
font size
0
reset
guitar tuner
Autoscroll
slow
fast
+/-
esc
set tempo
stop
Help us to improve Ultimate-Guitar.com Take our survey!
×
song: closer

band: nine inch nails



Well, here is what I could figure out of closer.  I dunno why anyone 

would really want to play this in a band, unless they had a really 

versitle keyboardist, or a realnice midi setup, but here it is anyway.



|--3--5-------------3----3--5----------5-3----|

|------------------------------------------4--|

|--------1--3----3-------------1--3-----------|

|---------------------------------------------|

this is the bass line as far as i can tell (i've only

heard it on my guitar).  it can be played with either

a wah pedal, or with some other funky (literally) pedal

that i can't remember the name of right now.  it's the 

same kind they use to do the groovy (literally) back-

ground guitar in all those old 70's movies.





i hope this transcription isn't tp hard to understamd, and i

hope anyone who does understand it enjoys is.  any comments, 

corrections, suggestions are welcome, just mail to the address

below.



transcribed by: darkelf@netcom.com

Suggest correction
Give kudos to tab author, rate the tab!
1 2 3 4 5
comments
print report bad tab
1 comment total.
0 reply
TheAnorexorcist 10 Nov 21, 2009 08:40 PM

|--3--5-------------3----3--5----------5-3----|
|------------------------------------------4--|
|--------1--3----3-------------1--3-----------|
|---------------------------------------------|
This is right from what I can hear.

|---------------------------------------------|
|---------------------------------------------|
|------------2--3-----------------------------|
|--2-2-2-2------------------------------------|
This is the chorus, imo.

guest
You may want to rate the tab now too:
select rating
Wanna post a correction for this tab? Suggest correction