Oops, an error
Loading. Please wait.

Closer To God tab

6,951 views 3 this week
2 commentsread comments
1 2 3 4 5
1 last vote to show rating
add to favorites
×
Save as Personal and add changes to this tab that will be seen only by you. Learn more ›
×
You can save this tab as Personal to edit and correct it or add notes. All changes will be seen only by you. Learn more »
launch autoscroll
font size
0
reset
how to read this tab
guitar tuner
edit
Autoscroll
slow
fast
+/-
esc
set tempo
stop
Author
this is the song "closer to god" by NIN from THE DOWNWARD SPIRAL. it is featured on disc 
of the Deluxe Edition and is a remix to the song "closer"
STANDARD TUNING

\=slide
h=hammer-on
b=bend string

Beginning (all of this is played really fast)
1----------------------------------|
2----------------------------------|
3----------------------------------|
4--0(really fast 24 times)---------|
5------5-7-------------------------|
6----------6-----------------------|

this part is around 1:37 in the song, and i think it is actually played on the keyboard
(play multiple times)
1----------------------------------|
2----------------------------------|
3----------------------------------|
4----------------------------------|
5---66h77h88h99--------------------|
6----------------------------------|

pre-chorus  this part is sorta a screech sound...i think this sounds pretty close

1----------------------------------|
2----4\24--------------------------|     "24" not "2...4"
3----4\24--------------------------|
4----------------------------------|
5----------------------------------|
6----------------------------------|

chorus

1---------------------------------|
2---------------------------------|
3---------------------------------|
4--10-10-10----4-4----------------|
5--10-10-10----4-4----------------|
6---8--8--8----2-2b---------------|

there ya go! theres a lot of other stuff going on in the song, but i think that this is 
of the guitar parts. listen to the song to get the # of times you play each part and timing

Random_Hero

            
            
Suggest correction
Creating personal tab
Creating personal tab
You can edit any tab online and save it as your Personal.

You can edit, replace or remove any tab part or add personal notes – all changes will be seen only by you.

Personal tabs can be accessed anytime from any device, even offline.
Learn more »
Give kudos to tab author, rate the tab!
1 2 3 4 5
comments
print report bad tab
2 comments total.
+1 reply
Chromex 374 Mar 11, 2009 10:37 AM

I think the beginning is more like this:

1----------------------------------|
2----------------------------------|
3----------------------------------|
4--0--0----------------------------|
5--------5-6-----------------------|
6------------6--8------------------|

0 reply
blackout354 42 Apr 23, 2012 12:19 PM

I think that the beginning is more like this :

1----------------------|
2----------------------|
3-------5--------------|
4----------------------|
5--1--3----------------|
6---------4-4----------|

guest
You may want to rate the tab now too:
select rating
Wanna post a correction for this tab? Suggest correction