Oops, an error
Loading. Please wait.

Closer bass

version 4
version 4

Whole song

Interactive

17,875 views 63 this week
no commentswrite comment
1 2 3 4 5
x 4
add to favorites
×
Save as Personal and add changes to this tab that will be seen only by you. Learn more ›
×
You can save this tab as Personal to edit and correct it or add notes. All changes will be seen only by you. Learn more »
launch autoscroll
font size
0
reset
guitar tuner
backing track
0:00
0:00
edit
Autoscroll
slow
fast
+/-
esc
set tempo
stop
Author
Here is the whole correct tab for "Closer" by Nine Inch Nails.


[Verse]
(wah pedal needed)
G|------------------------------------------|
D|-----10------------8------10-------8------|
A|--------------9h10-------------------10-9-|
E|-8-8-----8-8----------8-8-----8-8---------|


[Chorus]
G|--------------|
D|--------------|
A|----------1-2-|
E|-1-1-1-1------|


After Second Chorus
G|---------|
D|---------|
A|---------|
E|-0-0-0-1-|


There are 2 parts to this next section of the song.

When played live, this part is played after "you are the reason, I stay alive":
G|----------------------------|
D|----------------------------|
A|-1/33333333333320-----------|
E|----------------------------|


But if you want, you can play that first part (or skip it) and then switch to this:
G|---------------------8-|
D|-10-8-10-8-8-10-8-10---|
A|-----------------------|
E|-----------------------|


Jefferson

            
            
Suggest correction
Creating personal tab
Creating personal tab
You can edit any tab online and save it as your Personal.

You can edit, replace or remove any tab part or add personal notes – all changes will be seen only by you.

Personal tabs can be accessed anytime from any device, even offline.
Learn more »
comments
print report bad tab
guest
You may want to rate the tab now too:
select rating
Wanna post a correction for this tab? Suggest correction