Oops, an error
Loading. Please wait.

Collector bass

version 2
version 2

Whole song

Interactive

3,480 views 3 this week
3 commentsread comments
1 2 3 4 5
x 8
add to favorites
×
Save as Personal and add changes to this tab that will be seen only by you. Learn more ›
×
You can save this tab as Personal to edit and correct it or add notes. All changes will be seen only by you. Learn more »
launch autoscroll
font size
0
reset
guitar tuner
edit
Autoscroll
slow
fast
+/-
esc
set tempo
stop
Difficulty
THE COLLECTOR
Nine Inch Nails

Taken from the Nothing/Interscope album [With_Teeth] (Halo_19)   2005

Transcribed by Damian Pamminger

Standard tuning: E A D G

 Fig. 1 (Main riff - Intro, Verse, Pre-chorus)
|-------------------------------------------------|
|-------------------------------------------------|
|-5--3--5--\---------5--3--5--\-------------------|
|-------------1------------------1---1-2---3-3----|

 Fig. 2 (Main riff - how it's played right before the chorus)
|------------------------------------------|
|------------------------------------------|
|-5--3--5--\---------5--3--5--\------------|
|-------------1------------------1---1-2-/-|

Fig. 3 (Chorus)
|------------------------------------|-play-----|
|------------------------------------|-Fig. 2---|
|-8-8-8-8-8-8-8-8\-3-3-3-3-3-3-3-3--|--1x-------|
|------------------------------------|----------|

            
            
Suggest correction
Creating personal tab
Creating personal tab
You can edit any tab online and save it as your Personal.

You can edit, replace or remove any tab part or add personal notes – all changes will be seen only by you.

Personal tabs can be accessed anytime from any device, even offline.
Learn more »
comments
print report bad tab
3 comments total.
0 reply
TwitcheD_85 1,624 Jan 23, 2006 02:44 PM

Just to make tiny corrections on my own tab:

Fill:
E|-3-3-|

and

In the chorus section it should read:
PLAY SECOND HALF OF FIG. 2 (1X)

+2 reply
TeethinG 62 Aug 08, 2007 09:49 PM

You should watch the rehearsals on the Live DVD and watch how jeordie plays it.

-2 reply
xmari3nx 31 May 29, 2008 09:17 PM

good tab

guest
Wanna post a correction for this tab? Suggest correction