Oops, an error
Loading. Please wait.

Collector bass

version 3
version 3

Whole song

Interactive

399 views 1 this week
1 commentread comment
1 2 3 4 5
x 3
add to favorites
×
Save as Personal and add changes to this tab that will be seen only by you. Learn more ›
×
You can save this tab as Personal to edit and correct it or add notes. All changes will be seen only by you. Learn more »
launch autoscroll
font size
0
reset
guitar tuner
edit
Autoscroll
slow
fast
+/-
esc
set tempo
stop
Author
Band: Nine inch nails
Song: The collector
Tuning: Standard (GDAE)

Verse x10
G|-------------------------|
D|-------------------------|
A|------5-3-5---5-3-5------|
E|--3-3-------3-------3-5--|

Chorus
G|----------------------------|
D|----------------------------|
A|--55555555----------5535----|
E|-----------33333333------35-|

Post Chorus
G|------------------------|
D|------------------------|
A|--55555555--------------|
E|-----------33333333-----|

Verse x6
Chorus x3
Post Chorus x1
Verse x6

End
G|--------------|
D|--------------|
A|--------------|
E|--3-----------|

            
            
Suggest correction
Creating personal tab
Creating personal tab
You can edit any tab online and save it as your Personal.

You can edit, replace or remove any tab part or add personal notes – all changes will be seen only by you.

Personal tabs can be accessed anytime from any device, even offline.
Learn more »
Give kudos to tab author, rate the tab!
1 2 3 4 5
comments
print report bad tab
1 comment total.
0 reply
debassdude 10 May 24, 2007 12:55 PM

I think you're in the wrong key or something. Look at version 2, that should explain it.

guest
You may want to rate the tab now too:
select rating
Wanna post a correction for this tab? Suggest correction