Oops, an error
Loading. Please wait.

Echoplex bass

version 1
version 1

Whole song

Interactive

130 views 3 this week
1 commentread comment
1 2 3 4 5
x 3
add to favorites
×
Save as Personal and add changes to this tab that will be seen only by you. Learn more ›
×
You can save this tab as Personal to edit and correct it or add notes. All changes will be seen only by you. Learn more »
launch autoscroll
font size
0
reset
guitar tuner
backing track
0:00
0:00
edit
Autoscroll
slow
fast
+/-
esc
set tempo
stop
Title: Echoplex
Artist: Nine Inch Nails
Album: The Slip
Tuning: Standard - 1/2 step down (D# G# C# F#)
Tab Author: Pearce Hamblin (The Bass Diaries)

   Intro
F#|--------|--------|--------|--------|--------|--------|--------|-----------------|
C#|--------|--------|--------|--------|--------|--------|--------|-----------------|
G#|--------|--------|--------|--------|--------|--------|--------|-----------------|
D#|--------|--------|--------|--------|--------|--------|--------|-------------2---|

   Verse 1
F#|---------------------------------|------------------------------|---------------------------------|
C#|---------------------------------|------------------------------|---------------------------------|
G#|---------------------------------|------------------------------|---------------------------------|
D#|-2///14--14--14--14--14--14--14--|-14--14--14--14---0-------2---|-2///14--14--14--14--14--14--14--|


F#|------------------------------|---------------------------------|------------------------------|
C#|------------------------------|---------------------------------|------------------------------|
G#|------------------------------|---------------------------------|------------------------------|
D#|-14--14--14--14---0-------2---|-2///14--14--14--14--14--14--14--|-14--14--14--14---0-------2---|


F#|---------------------------------|------------------------------|---------------------------------|
C#|---------------------------------|------------------------------|---------------------------------|
G#|---------------------------------|------------------------------|---------------------------------|
D#|-2///14--14--14--14--14--14--14--|-14--14--14--14---0-------2---|-2///14--14--14--14--14--14--14--|


F#|------------------------------|---------------------------------|------------------------------|
C#|------------------------------|---------------------------------|------------------------------|
G#|------------------------------|---------------------------------|------------------------------|
D#|-14--14--14--14---0-------2---|-2///14--14--14--14--14--14--14--|-14--14--14--14---0-------2---|


F#|---------------------------------|------------------------------|---------------------------------|
C#|---------------------------------|------------------------------|---------------------------------|
G#|---------------------------------|------------------------------|---------------------------------|
D#|-2///14--14--14--14--14--14--14--|-14--14--14--14---0-------2---|-2///14--14--14--14--14--14--14--|

                                                             Chorus 1
F#|------------------------------|--------|-----------------|---------------------------------|
C#|------------------------------|--------|-----------------|---------------------------------|
G#|------------------------------|--------|-----------------|---------------------------------|
D#|-14--14--14--14---0-------2---|--------|-------------0---|-2///14--14--14--14--14--14--14--|


F#|---------------------------------|---------------------------------|---------------------------------|
C#|---------------------------------|---------------------------------|---------------------------------|
G#|---------------------------------|---------------------------------|---------------------------------|
D#|-10--10--10--10--10--10--10--10--|-8---8---8---8---8---8---8---8---|-6---6---6---6---6---6---6---6---|


F#|---------------------------------|---------------------------------|---------------------------------|
C#|---------------------------------|---------------------------------|---------------------------------|
G#|---------------------------------|---------------------------------|---------------------------------|
D#|-2---2---2---2---2---2---2---2---|-10--10--10--10--10--10--10--10--|-8---8---8---8---8---8---8---8---|

                                                                               
F#|------------------------------|--------|--------|--------|-----------------|
C#|------------------------------|--------|--------|--------|-----------------|
G#|------------------------------|--------|--------|--------|-----------------|
D#|-12--12--12--12--12--12--12---|--------|--------|--------|-------------2---|

   Verse 2
F#|---------------------------------|------------------------------|---------------------------------|
C#|---------------------------------|------------------------------|---------------------------------|
G#|---------------------------------|------------------------------|---------------------------------|
D#|-2///14--14--14--14--14--14--14--|-14--14--14--14---0-------2---|-2///14--14--14--14--14--14--14--|


F#|------------------------------|---------------------------------|------------------------------|
C#|------------------------------|---------------------------------|------------------------------|
G#|------------------------------|---------------------------------|------------------------------|
D#|-14--14--14--14---0-------2---|-2---14--14--14--14--14--14--14--|-14--14--14--14---0-------2---|


F#|---------------------------------|------------------------------|---------------------------------|
C#|---------------------------------|------------------------------|---------------------------------|
G#|---------------------------------|------------------------------|---------------------------------|
D#|-2///14--14--14--14--14--14--14--|-14--14--14--14---0-------2---|-2///14--14--14--14--14--14--14--|


F#|------------------------------|---------------------------------|------------------------------|
C#|------------------------------|---------------------------------|------------------------------|
G#|------------------------------|---------------------------------|------------------------------|
D#|-14--14--14--14---0-------2---|-2---14--14--14--14--14--14--14--|-14--14--14--14---0-------2---|

   Chorus 2                                                                 
F#|---------------------------------|---------------------------------|---------------------------------|
C#|---------------------------------|---------------------------------|---------------------------------|
G#|---------------------------------|---------------------------------|---------------------------------|
D#|-14--14--14--14--14--14--14--14--|-10--10--10--10--10--10--10--10--|-8---8---8---8---8---8---8---8---|


F#|---------------------------------|---------------------------------|---------------------------------|
C#|---------------------------------|---------------------------------|---------------------------------|
G#|---------------------------------|---------------------------------|---------------------------------|
D#|-6---6---6---6---6---6---6---6---|-14--14--14--14--14--14--14--14--|-10--10--10--10--10--10--10--10--|


F#|---------------------------------|---------------------------------|---------------------------------|
C#|---------------------------------|---------------------------------|---------------------------------|
G#|---------------------------------|---------------------------------|---------------------------------|
D#|-8---8---8---8---8---8---8---8---|-6---6---6---6---6---6---6---0---|-2---2---2---2---2---2---2---2---|


F#|---------------------------------|---------------------------------|---------------------------------|
C#|---------------------------------|---------------------------------|---------------------------------|
G#|---------------------------------|---------------------------------|---------------------------------|
D#|-10--10--10--10--10--10--10--10--|-8---8---8---8---8---8---8---8---|-6---6---6---6---6---6---6---0---|


F#|---------------------------------|---------------------------------|---------------------------------|
C#|---------------------------------|---------------------------------|---------------------------------|
G#|---------------------------------|---------------------------------|---------------------------------|
D#|-2---2---2---2---2---2---2---2---|-10--10--10--10--10--10--10--10--|-8---8---8---8---8---8---8---8---|

                                     Break
F#|---------------------------------|--------|--------|--------|--------|--------|--------|--------|
C#|---------------------------------|--------|--------|--------|--------|--------|--------|--------|
G#|---------------------------------|--------|--------|--------|--------|--------|--------|--------|
D#|-12--12--12--12--12--12--12--12--|--------|--------|--------|--------|--------|--------|--------|

                     Chorus 3 to Outro
F#|-----------------|---------------------------------|---------------------------------|
C#|-----------------|---------------------------------|---------------------------------|
G#|-----------------|---------------------------------|---------------------------------|
D#|-------------0---|-2---2---2---2---2---2---2---2---|-10--10--10--10--10--10--10--10--|

   
F#|---------------------------------|---------------------------------|---------------------------------|
C#|---------------------------------|---------------------------------|---------------------------------|
G#|---------------------------------|---------------------------------|---------------------------------|
D#|-8---8---8---8---8---8---8---8---|-6---6---6---6---6---6---6---0---|-2---2---2---2---2---2---2---2---|


F#|---------------------------------|---------------------------------|---------------------------------|
C#|---------------------------------|---------------------------------|---------------------------------|
G#|---------------------------------|---------------------------------|---------------------------------|
D#|-10--10--10--10--10--10--10--10--|-8---8---8---8---8---8---8---8---|-12--12--12--12--12--12--12------|


F#|---------------------------------|---------------------------------|---------------------------------|
C#|---------------------------------|---------------------------------|---------------------------------|
G#|---------------------------------|---------------------------------|---------------------------------|
D#|-2---2---2---2---2---2---2---2---|-12--12--12--12--12--12--12--12--|-8---8---8---8---8---8---8---8---|


F#|---------------------------------|---------------------------------|---------------------------------|
C#|---------------------------------|---------------------------------|---------------------------------|
G#|---------------------------------|---------------------------------|---------------------------------|
D#|-6---6---6---6---6---6---6---6---|-2---2---2---2---2---2---2---2---|-10--10--10--10--10--10--10--10--|


F#|---------------------------------|------------------------------|---------------------------------|
C#|---------------------------------|------------------------------|---------------------------------|
G#|---------------------------------|------------------------------|---------------------------------|
D#|-8---8---8---8---8---8---8---8---|-14--14--14--14--14--16--17---|-2---2---2---2---2---2---2---2---|


F#|---------------------------------|---------------------------------|---------------------------------|
C#|---------------------------------|---------------------------------|---------------------------------|
G#|---------------------------------|---------------------------------|---------------------------------|
D#|-10--10--10--10--10--10--10--10--|-8---8---8---8---8---8---8---8---|-6---6---6---6---6---6---6---0---|


F#|---------------------------------|---------------------------------|---------------------------------|
C#|---------------------------------|---------------------------------|---------------------------------|
G#|---------------------------------|---------------------------------|---------------------------------|
D#|-2---2---2---2---2---2---2---2---|-10--10--10--10--10--10--10--10--|-8---8---8---8---8---8---8---8---|


F#|------------------------------|---------------------------------|---------------------------------|
C#|------------------------------|---------------------------------|---------------------------------|
G#|------------------------------|---------------------------------|---------------------------------|
D#|-12--12--12--12--12--12--12---|-2---2---2---2---2---2---2---2---|-10--10--10--10--10--10--10--10--|


F#|---------------------------------|---------------------------------|---------------------------------|
C#|---------------------------------|---------------------------------|---------------------------------|
G#|---------------------------------|---------------------------------|---------------------------------|
D#|-8---8---8---8---8---8---8---8---|-6---6---6---6---6---6---6---0---|-2---2---2---2---2---2---2---2---|


F#|---------------------------------|---------------------------------|------------------------------|
C#|---------------------------------|---------------------------------|------------------------------|
G#|---------------------------------|---------------------------------|------------------------------|
D#|-10--10--10--10--10--10--10--10--|-8---8---8---8---8---8---8---8---|-12--12--12--12--12--12--12---|


F#|---------------------------------|---------------------------------|---------------------------------|
C#|---------------------------------|---------------------------------|---------------------------------|
G#|---------------------------------|---------------------------------|---------------------------------|
D#|-2---2---2---2---2---2---2---2---|-10--10--10--10--10--10--10--10--|-8---8---8---8---8---8---8---8---|


F#|---------------------------------|---------------------------------|---------------------------------|
C#|---------------------------------|---------------------------------|---------------------------------|
G#|---------------------------------|---------------------------------|---------------------------------|
D#|-6---6---6---6---6---6---6---0---|-2---2---2---2---2---2---2---2---|-10--10--10--10--10--10--10--10--|


F#|---------------------------------|------------------------------|---------------------------------|
C#|---------------------------------|------------------------------|---------------------------------|
G#|---------------------------------|------------------------------|---------------------------------|
D#|-8---8---8---8---8---8---8---8---|-12--12--12--12--12--12--12---|-2---2---2---2---2---2---2---2---|


F#|---------------------------------|---------------------------------|---------------------------------|
C#|---------------------------------|---------------------------------|---------------------------------|
G#|---------------------------------|---------------------------------|---------------------------------|
D#|-10--10--10--10--10--10--10--10--|-8---8---8---8---8---8---8---8---|-6---6---6---6---6---6---6---0---|


F#|---------------------------------|---------------------------------|---------------------------------|
C#|---------------------------------|---------------------------------|---------------------------------|
G#|---------------------------------|---------------------------------|---------------------------------|
D#|-2---2---2---2---2---2---2---2---|-10--10--10--10--10--10--10--10--|-8---8---8---8---8---8---8---8---|


F#|------------------------------|---------------------------------|---------------------------------|
C#|------------------------------|---------------------------------|---------------------------------|
G#|------------------------------|---------------------------------|---------------------------------|
D#|-12--12--12--12--12--12--12---|-2---2---2---2---2---2---2---2---|-10--10--10--10--10--10--10--10--|


F#|---------------------------------|---------------------------------|---------------------------------|
C#|---------------------------------|---------------------------------|---------------------------------|
G#|---------------------------------|---------------------------------|---------------------------------|
D#|-8---8---8---8---8---8---8---8---|-6---6---6---6---6---6---6---0---|-2---2---2---2---2---2---2---2---|


F#|---------------------------------|---------------------------------|------------------------------|
C#|---------------------------------|---------------------------------|------------------------------|
G#|---------------------------------|---------------------------------|------------------------------|
D#|-10--10--10--10--10--10--10--10--|-8---8---8---8---8---8---8---8---|-12--12--12--12--12--12--12---|


F#|--------|--------|--------|--------|--------|--------|--------|--------|--------|--------|--------|
C#|--------|--------|--------|--------|--------|--------|--------|--------|--------|--------|--------|
G#|--------|--------|--------|--------|--------|--------|--------|--------|--------|--------|--------|
D#|--------|--------|--------|--------|--------|--------|--------|--------|--------|--------|--------|


F#|--------|--------|--------|--------|--------|
C#|--------|--------|--------|--------|--------|
G#|--------|--------|--------|--------|--------|
D#|--------|--------|--------|--------|--------|


***********************************
| /   Slide up
***********************************

            
            
Suggest correction
Creating personal tab
Creating personal tab
You can edit any tab online and save it as your Personal.

You can edit, replace or remove any tab part or add personal notes – all changes will be seen only by you.

Personal tabs can be accessed anytime from any device, even offline.
Learn more »
Give kudos to tab author, rate the tab!
1 2 3 4 5
comments
print report bad tab
1 comment total.
0 reply
xKrystalBassx 10 Dec 06, 2016 04:47 PM

love love love this song its the best off the slip =] thanks for this perfect tab

guest
You may want to rate the tab now too:
select rating
Wanna post a correction for this tab? Suggest correction