Oops, an error
Loading. Please wait.

Every Day Is Exactly The Same bass

version 2
version 2

Whole song

Interactive

9,522 views 18 this week
1 commentread comment
1 2 3 4 5
x 8
add to favorites
×
Save as Personal and add changes to this tab that will be seen only by you. Learn more ›
×
You can save this tab as Personal to edit and correct it or add notes. All changes will be seen only by you. Learn more »
launch autoscroll
font size
0
reset
guitar tuner
backing track
0:00
0:00
edit
Autoscroll
slow
fast
+/-
esc
set tempo
stop
Author
Difficulty
Tabbed by: Chris C. (Coolpix56)
e-mail: jccommander@comcast.net

Tuning: Standard (E,A,D,G)

Verse
G |---------------------------------|
D |--2-2-2-2-2-2--------------------|
A |---------------3-3-3-3-3-3-3-3---| 3X
E |---------------------------------|

G |---------------------------------|
D |--5-5-5-5-5-5--3-3-3-3-3-3-3-3---|
A |---------------------------------| 1X
E |---------------------------------|


Chorus
G |-------------------------------------------------------------|
D |-------------------------------------------------------------|
A |--------------0-0-0-0-0-0-0-0--3-3-3-3-3-3-------------------|
E |--0-0-0-0-0-0-------------------------------3-3-3-3-3-3-3-3--|

And that's about it. If you have any corrections submit them to me at: jccommander@comcast.net.

            
            
Suggest correction
Creating personal tab
Creating personal tab
You can edit any tab online and save it as your Personal.

You can edit, replace or remove any tab part or add personal notes – all changes will be seen only by you.

Personal tabs can be accessed anytime from any device, even offline.
Learn more »
comments
print report bad tab
1 comment total.
+1 reply
yokota.shigenob 10 Mar 02, 2014 03:02 AM, edited at 08:04 am

my bad.

7th fret 3rd string (pick 6 times) slide to the 12th fret 3rd string (pick 8times)
---------------------------------
-----------------------------------
---777777-----slide---12121212121212
-----------------------------------

8th fret 4th string (pick 6 times) slide to the 13th fret 4th string (pick 8times)
-----------------------------------
-----------------------------------
-----------------------------------
---888888-----slide---1313131313131313

guest
You may want to rate the tab now too:
select rating
Wanna post a correction for this tab? Suggest correction