Oops, an error
Loading. Please wait.

Great Destroyer Tab

version 1
version 1

Whole song

Interactive

7,514 views 9 this week
2 commentsread comments
1 2 3 4 5
x 5
add to favorites
launch autoscroll
font size
0
reset
how to read this tab
guitar tuner
Autoscroll
slow
fast
+/-
esc
set tempo
stop
Help us to improve Ultimate-Guitar.com Take our survey!
×
Author
Album: Year Zero

 Drop D tuning

 Q=75  
 4/4
 
 Verse
e|---------------------------------|------------------------------------|
B|---------------------------------|------------------------------------|
G|---------------------------------|------------------------------------|
D|-0-0h2-2-x---0-0h2-2-----0-0h2-2-|-x---0-0h2-2---10-10-10-10--5-5-5---|
A|-0-0h2-2-x---0-0h2-2-----0-0h2-2-|-x---0-0h2-2---10-10-10-10--5-5-5---|
D|-0-0h2-2-x---0-0h2-2-----0-0h2-2-|-x---0-0h2-2---10-10-10-10--5-5-5---|
 
 this strange sound before chorus is probably a natural harmonic:
e|-----------------
B|-----------------
G|-<5>-------------
D|-----------------
A|-----------------
D|-----------------

 
 Chorus
e|---------------------------------|---------------------------------|
B|---------------------------------|---------------------------------|
G|-x-2-2-2-2---x-5-5-5-5-----------|-----x-7-7-7-7-------------------|
D|-x-2-2-2-2---x-5-5-5-5---x-5-5-5-|-5---x-7-7-7-7---x-3-3-3-x-2-2-2-|
A|-x-0-0-0-0---x-3-3-3-3---x-5-5-5-|-5---x-5-5-5-5---x-3-3-3-x-2-2-2-|
D|-------------------------x-5-5-5-|-5---------------x-3-3-3-x-2-2-2-|
 |
e|---------------------------------|---------------------------------|
B|---------------------------------|---------------------------------|
G|-2---2---2---2---2---2---2---2---|-2---2---2---2---2---2---2---2---|
D|---------------------------------|---------------------------------|
A|---------------------------------|---------------------------------|
D|---------------------------------|---------------------------------|


 second verse additional guitar
e|---------------------------------|------------------------------------|
B|---------------------------------|------------------------------------|
G|---------------------------------|------------------------------------|
D|-6b~~~~~~~~~~~~~(7)~(6)~~~~~~~~~~|-(7)r6~~~~~~~~~~~7b~~~~~~(8)~~~~~~~~|
A|---------------------------------|------------------------------------|
D|---------------------------------|------------------------------------|


Legend:

h = hammer on
x = mute
<> = harmonic
b = bend
~ = vibrato
r = release
Suggest correction
comments
print report bad tab
2 comments total.
0 reply
Red33 40 Apr 09, 2008 06:24 PM

That's great, but it would definatly be easier to change the C5 in the verse to a:
G 5
D 5
A 3

Good tab

0 reply
browar 1,097 Apr 10, 2008 03:44 AM

It's how they play it.

guest
You may want to rate the tab now too:
select rating
Wanna post a correction for this tab? Suggest correction