Oops, an error
Loading. Please wait.

Help Me I Am In Hell bass

version 1
version 1

Whole song

Interactive

775 views 1 this week
no commentswrite comment
1 2 3 4 5
1 last vote to show rating
add to favorites
×
Save as Personal and add changes to this tab that will be seen only by you. Learn more ›
×
You can save this tab as Personal to edit and correct it or add notes. All changes will be seen only by you. Learn more »
launch autoscroll
font size
0
reset
guitar tuner
edit
Autoscroll
slow
fast
+/-
esc
set tempo
stop
Author
Difficulty
--------------------------------------------------------------------------------
     HELP ME I AM IN HELL (simultaneous bass & melody) - Nine Inch Nails
--------------------------------------------------------------------------------

Tabbed By: Sticklefifer

Tuning: EADG

I made this tab because there's usually only a bass or a guitar tab online, and this is
way to play both the bassline and the melody of the guitar at the same time.

This is based more on the live version than the Broken EP version. The most significant
is the hammer-ons in segment 3.


~ = let ring
( ) = play second time but not the first

Segment 1: [2x]

G|----4----4----4----5----5----5----5----5----7----5----7----13~------------------|
D|--------------------------------------------------------------------------------|
A|--------------------------------------------------------------------------------|
E|----0----0----0----0----0----0----0----0----0----0----0----0----0----0----0----0|


G|----4----4----4----5----5----5----5----5-----------------------------7~---------|
D|--------------------------------------------7----7----7----6----6---------------|
A|--------------------------------------------------------------------------------|
E|----0----0----0----0----0----0----0----0----0----0----0----0----0----0----0----0|

Segment 2: [2x]

G|----4----4----4----5----5----5----5----5----7----5----7----13~------------------|
D|--------------------------------------------0----0----0----0----0----0----0----0|
A|--------------------------------------------------------------------------------|
E|----3----3----3----3----3----3----3----3----------------------------------------|

G|----4----4----4----5----5----5----5----5-----------------------------7~---------|
D|--------------------------------------------7----7----7----6----6---------------|
A|--------------------------------------------------------------------------------|
E|----0----0----0----0----0----0----0----0----0----0----0----0----0----0----0----0|

Segment 3: [2x]

G|----4----4----4----5----5----5----5----5----7----5----7----13~----13h14-13h14-13|
D|--------------------------------------------0----0----0----0----0----0----0----0|
A|--------------------------------------------------------------------------------|
E|----3----3----3----3----3----3----3----3----------------------------------------|

G|----4----4----4----5----5----5----5----5-----------------------------7----------|
D|--------------------------------------------7----7----7----6----6---------6-----|
A|-------------------------------------------------------------------------------7|
E|----0----0----0----0----0----0----0----0----0----0----0----0----0----0----0----0|

Segment 4: [2x]

G|----4----4----4----5----5----5----5----5----7----5----7----13~------------13~---|
D|--------------------------------------------0----0----0----0----0----0----0----0|
A|--------------------------------------------------------------------------------|
E|----3----3----3----3----3----3----3----3----------------------------------------|

G|----4----4----4----5----5----5----5----5-----------------------------7~---------|
D|--------------------------------------------7----7----7----6----6--------(6~)---|
A|--------------------------------------------------------------------------------|
E|----0----0----0----0----0----0----0----0----0----0----0----0----0----0----0----0|


Notes: You can tune to EGDG if you'd rather have an open string instead of an E-string
once you go into segment 2. If you do, once you get to the 7 on the A string in segment
either don't play it or play the 9th fret instead (this requires some reach though). I 
like playing it in EGDG but I tabbed it in standard.
Suggest correction
Creating personal tab
Creating personal tab
You can edit any tab online and save it as your Personal.

You can edit, replace or remove any tab part or add personal notes – all changes will be seen only by you.

Personal tabs can be accessed anytime from any device, even offline.
Learn more »
Give kudos to tab author, rate the tab!
1 2 3 4 5
comments
print report bad tab
guest
You may want to rate the tab now too:
select rating
Wanna post a correction for this tab? Suggest correction