Oops, an error
Loading. Please wait.
We have Chord Pro version of Hurt.
It's the closest thing you can get to the original song and it has interactive parts. Check out the tab »
×
4,737 views 30 this week
2 commentsread comments
1 2 3 4 5
x 9
add to favorites
×
Save as Personal and add changes to this tab that will be seen only by you. Learn more ›
×
You can save this tab as Personal to edit and correct it or add notes. All changes will be seen only by you. Learn more »
launch autoscroll
font size
0
reset
how to read this tab
guitar tuner
backing track
0:00
0:00
edit
Autoscroll
slow
fast
+/-
esc
set tempo
stop
Author
Difficulty
-------------------------------------------------------------------------------
                             Hurt (Live) - Nine Inch Nails
-------------------------------------------------------------------------------
Tabbed by: Rhys...
Email: the_citizen_erased@hotmail.co.uk

Tuning: Standard


Based on 2009 tour version. All finger picked.

Email any questions

Main riff: 


I hurt myself...
e|--------------|-------0----------| 
B|-------6----3-|-----3---------3--| 
G|--------------|---2-------4------| 
D|---4----------|-0-------2--------| 
A|-2------------|------------------| 
E|--------------|------------------| 


Chorus: 
What have I become...
e|---------|---------|---------|---------| 
B|---------|---------|---------|---------| 
G|-2-2-2-2-|-2-2-2-2-|-2-2-2-2-|-2-2-2-2-| 
D|---------|---------|---------|-0-------| 
A|-0-------|-2-------|---------|---------| 
E|---------|---------|-3-------|---------| 



And you could have it all...
e|-----0----|----------|-----------|------------| 
B|--------3-|-----3--2-|------2--0-|----0---0-2-| 
G|---2------|---2------|---0-------|-----2------| 
D|--2-------|--0-------|--0--------|--0---------| 
A|-0--------|-2--------|-----------|-0----------| 
E|----------|----------|-3---------|------------| 

e|-----0-2--|----------|-----------|------------| 
B|--------3-|-----3--2-|------2--0-|----0---0---| 
G|---2------|---2------|---0-------|-----2------| 
D|--2-------|--0-------|--0--------|--0---------| 
A|-0--------|-2--------|-----------|-0----------| 
E|----------|----------|-3---------|------------| 

Repeat verse then chorus again.

Outro: 


If I could start again...
e|---------| 
B|---------| 
G|-9-9-9-9-| 
D|-7-7-7-7-| 
A|---------| 
E|---------| 


I would find... 
e|---------| 
B|---------| 
G|---------| 
D|-7---2---| 
A|--------2| 
E|---------| 



| /  slide up
| \  slide down
| h  hammer-on
| p  pull-off
| ~  vibrato
| +  harmonic
| x  Mute note

            
            
Suggest correction
Creating personal tab
Creating personal tab
You can edit any tab online and save it as your Personal.

You can edit, replace or remove any tab part or add personal notes – all changes will be seen only by you.

Personal tabs can be accessed anytime from any device, even offline.
Learn more »
comments
print report bad tab
2 comments total.
0 reply
elias-pa 10 Apr 27, 2012 04:54 PM

don´t get it ? it´s the vocal melody ?

+2 reply
Nightstrider 50 Mar 15, 2013 05:23 PM

I haven't used my account on this site in years but I had to log in again just to say what a fantastic tab you've made here. A-freakin'-plus, good sir!

Also, if you want to just play chords for the chorus ("And you could have it all..."), I find these work really well.

E------------------|------------------|
B------------------|------------------|
G------------------|------------------|
D--7-7-7-7-7-7-7-7-|-7-7-7-7-7-7-7-7--|
A--7-7-7-7-9-9-9-9-|-5-5-5-5-7-7-7-7--|
E--5-5-5-5-7-7-7-7-|-3-3-3-3-5-5-5-5--|

guest
You may want to rate the tab now too:
select rating
Wanna post a correction for this tab? Suggest correction