Oops, an error
Loading. Please wait.

I Would For You Tab

version 1
version 1

Solo

Whole song

638 views 1 this week
1 commentread comment
1 2 3 4 5
excellent!
x 2
add to favorites
launch autoscroll
font size
0
reset
how to read this tab
guitar tuner
Tab Pro tools
  • play this tab
  • loop segment
  • change instrument
  • show fretboard
  • metronome
Autoscroll
slow
fast
+/-
esc
set tempo
stop
Contributor
-----------------------------------------------------------------------------
                             "I WOULD FOR YOU"- Nine Inch Nails
-----------------------------------------------------------------------------
Tabbed by:decayingsinner
E-mail:joeghartman@verizon.net


I think I have the solo at the end down, but can not figure out the rest.  The
chorus has a lot of layers going on.


Tuning: Drop D

e|---------------------------------------------------------------------------|
B|---------------------------------------------------------------------------|
G|---18 18 18 18\17--12-14-15-15-15-15-15-15-15-15---------------------------|
D|---------------------------------------------------------------------------|
A|---16 16 16 16\15--10-12-13-13-13-13-13-13-13-13---------------------------|
D|---------------------------------------------------------------------------|

e|--------------------------------------------------------------------------|
B|--------------------------------------------------------------------------|
G|----18-18-18-18\17--12-14-15-15-15/16\15-15-15-15-------------------------|
D|--------------------------------------------------------------------------|
A|----16-16-16-16\15--10-12-13-13-13/14\13-13-13-13-------------------------|
D|--------------------------------------------------------------------------|

e|----------------------------------------------------------------------------|
B|----------------------------------------------------------------------------|
G|----18-18-18-18\17--12-14-15-15-15-15-15-15-15-15---------------------------|
D|----------------------------------------------------------------------------|
A|----16-16-16-16\15--10-12-13-13-13-13-13-13-13-13---------------------------|
D|----------------------------------------------------------------------------|

e|--------------------------------------------------------------------------|
B|--------------------------------------------------------------------------|
G|----18-18-18-18\17--12-14-15-15-15-15-15-15-13\12-------------------------|
D|--------------------------------------------------------------------------|
A|----16-16-16-16\15--10-12-13-13-13-13-13-13-11\10-------------------------|
D|--------------------------------------------------------------------------|

Repeats twice

************************************

| /   slide up
| \   slide down
| h   hammer-on
| p   pull-off
| ~   vibrato
| +   harmonic
| x   Mute note
| b   Bend
| pb  Pre-bend
| br  Bend release
| pbr Pre-bend release
| brb Bend release bend

************************************
comments
We did not receive enough feedback on this tab! Please rate:
print report bad tab
1 2 3 4 5
1 comment total.
+1 reply
fedeborgo wrote on October 7 2013, 12:14 pm

e|----------------------------------------------------------------------|
B|----------------------------------------------------------------------|
G|---18 18 18 18\17--12-13-15-15-15-15-15-15-15-15----------------------|
D|----------------------------------------------------------------------|
A|---16 16 16 16\15--10-11-13-13-13-13-13-13-13-13----------------------|
D|----------------------------------------------------------------------|

e|----------------------------------------------------------------------|
B|----------------------------------------------------------------------|
G|----18-18-18-18\17--12-13-15-15-15/16\15-15-15-15---------------------|
D|----------------------------------------------------------------------|
A|----16-16-16-16\15--10-11-13-13-13/14\13-13-13-13---------------------|
D|----------------------------------------------------------------------|

e|----------------------------------------------------------------------|
B|----------------------------------------------------------------------|
G|----18-18-18-18\17--12-13-15-15-15-15-15-15-15-15---------------------|
D|----------------------------------------------------------------------|
A|----16-16-16-16\15--10-11-13-13-13-13-13-13-13-13---------------------|
D|----------------------------------------------------------------------|

e|----------------------------------------------------------------------|
B|----------------------------------------------------------------------|
G|----18-18-18-18\17--12-13-15-15-15-15-15-15-13\12-10------------------|
D|----------------------------------------------------------------------|
A|----16-16-16-16\15--10-11-13-13-13-13-13-13-11\10-8-------------------|
D|----------------------------------------------------------------------|

I want to post or [tab]
guest
You may want to rate the tab now too:
select rating
Please do not post tabs as comments. Select "correction" instead!