Oops, an error
Loading. Please wait.

Just Like You Imagined bass

version 2
version 2

Whole song

Interactive

4,782 views 1 this week
no commentswrite comment
1 2 3 4 5
x 3
add to favorites
×
Save as Personal and add changes to this tab that will be seen only by you. Learn more ›
×
You can save this tab as Personal to edit and correct it or add notes. All changes will be seen only by you. Learn more »
launch autoscroll
font size
0
reset
guitar tuner
edit
Autoscroll
slow
fast
+/-
esc
set tempo
stop
Author
----------------------------------------------------------------------------
                Nine Inch Nails - Just Like You Imagined
----------------------------------------------------------------------------
Tabbed by: Jack Flint
E-mail: calogidi@hotmail.com
Tuning: DGDG

| /  slide up
| \  slide down
| h  hammer-on
| p  pull-off
| ~  vibrato
| +  harmonic
| x  Mute note
| r  rest

All the tabs i've seen on this bass line are, for the most part, wrong.
Here it is, in plain and simple form. If you need to get the rhythm down, play along 
the lead guitar at 2:42, it takes a little practice.

Update: I've realized the tuning is actually DGDG, not standard. So here's the revised version.

Main Riff:
|--------------------------------|
|--------------------------------|
|--------------------3--r-5--r-7-|
|-0--------3--r-5--r-------------|

That's it..Really, that's it.

There's a part in the beginning to middle where everybody reenters (the extremely fast 
solo).

1:38
|-----------------------------|
|-----------------------------|
|-7---------------------------|
|-0------/3--/5--/8--/10--/12-|

Just slide all the way to the 12th fret, but pick each note.

When harder guitar parts come in, you can fill in more notes for more power (make sure 
keep in rhythm, drums are very important in this song);

1:38 - 2:25
|----------------------------------|
|----------------------------------|
|--------------------3--3r5--r-7---|
|-0--0--0--3--3r5--r---------------|

2:26 - 3:14
|--------------------------------|
|--------------------------------|
|---7-----------------3-3-3-5--r-|
|-0---0-0--3-3-3-5--r------------|

The outro with the piano is just the main riff, but softer.

Outro:
|-------------------------------|
|-------------------------------|
|-------------------3--r-5--r-7-|
|-0-------3--r-5--r-------------|

That's it, enjoy!

            
            
Suggest correction
Creating personal tab
Creating personal tab
You can edit any tab online and save it as your Personal.

You can edit, replace or remove any tab part or add personal notes – all changes will be seen only by you.

Personal tabs can be accessed anytime from any device, even offline.
Learn more »
Give kudos to tab author, rate the tab!
1 2 3 4 5
comments
print report bad tab
guest
You may want to rate the tab now too:
select rating
Wanna post a correction for this tab? Suggest correction