Oops, an error
Loading. Please wait.

Less Than bass

631 views 78 this week
1 commentread comment
1 2 3 4 5
x 4
add to favorites
×
Save as Personal and add changes to this tab that will be seen only by you. Learn more ›
×
You can save this tab as Personal to edit and correct it or add notes. All changes will be seen only by you. Learn more »
launch autoscroll
font size
0
reset
guitar tuner
edit
Autoscroll
slow
fast
+/-
esc
set tempo
stop
About this tab version
Played with some fuzzy distortion. Was this info helpful? Yes No
[Verse] 
(Bass at 00:09)
   1  +  2  +  3  +  4  +    1  +  2  +  3  +  4  + 
G|-------14-14-14-14-14----|-------------------------|
D|----------------------11-|-11-11-11-13-13-13-13-15-|
A|-------------------------|-------------------------|
E|-------------------------|-------------------------|

   1  +  2  +  3  +  4  +    1  +  2  +  3  +  4  + 
G|-------------14-14-14----|-------------------------|
D|-15-13-15-15----------11-|-11-11-11-13-13-13-13-15-|
A|-------------------------|-------------------------|
E|-------------------------|-------------------------|

   1  +  2  +  3  +  4  +    1  +  2  +  3  +  4  + 
G|-------------14-14-14----|-------------------------|
D|----15-15-15----------11-|-11-11-11-13-13-13-13-15-|
A|-------------------------|-------------------------|
E|-------------------------|-------------------------|

   1  +  2  +  3  +  4  +    1  +  2  +  3  +  4  + 
G|-------------14-14-14----|-------------------------|
D|-15-13-15-15----------11-|-11-11-11-13-13-13-13----|
A|-------------------------|----------------------11-|
E|-------------------------|-------------------------|

[Bridge]
   1  +  2  +  3  +  4  +    1  +  2  +  3  +  4  + 
G|-------------------------|-------------------------|
D|-------------------------|-------------------------|
A|-11-11-11-13-13-13-13-13-|-13-13-13-13-13-13-13-11-|
E|-------------------------|-------------------------|

   1  +  2  +  3  +  4  +    1  +  2  +  3  +  4  + 
G|-------------------------|-------------------------|
D|-------------------------|-------------------------|
A|-11-11-11-13-13-13-13-13-|-13-13-13-13-13-13-13-13-|
E|-------------------------|-------------------------|

   1  +  2  +  3  +  4  +    1  +  2  +  3  +  4  + 
G|-------------------------|-------------------------|
D|-------------------------|-------------------------|
A|-------------------------|-------------------------|
E|-11-11-11-11-13-13-13-13-|-13-13-13-13-13-13-13-13-|

   1  +  2  +  3  +  4  +    1  +  2  +  3  +  4  + 
G|-------------------------|-------------------------|
D|-------------------------|-------------------------|
A|-------------------------|-------------------------|
E|-13-11-11-13-13-13-13-13-|-13-13-13-13-13-13-13-13-|

[Verse]
   1  +  2  +  3  +  4  +    1  +  2  +  3  +  4  + 
G|----------14-14-14-14----|-------------------------|
D|----------------------11-|-11-11-11-13-13-13-13-15-|
A|-------------------------|-------------------------|
E|-13-13-13----------------|-------------------------|

   1  +  2  +  3  +  4  +    1  +  2  +  3  +  4  + 
G|-------------14-14-14----|-------------------------|
D|-15-13-15-15----------11-|-11-11-11-13-13-13-13-15-|
A|-------------------------|-------------------------|
E|-------------------------|-------------------------|

   1  +  2  +  3  +  4  +    1  +  2  +  3  +  4  + 
G|-------------14-14-14----|-------------------------|
D|----15-15-15----------11-|-11-11-11-13-13-13-13-15-|
A|-------------------------|-------------------------|
E|-------------------------|-------------------------|

   1  +  2  +  3  +  4  +    1  +  2  +  3  +  4  + 
G|-------------14-14-14----|-------------------------|
D|-15-13-15-15----------11-|-11-11-11-13-13-13-13----|
A|-------------------------|----------------------11-|
E|-------------------------|-------------------------|

[Bridge]
   1  +  2  +  3  +  4  +    1  +  2  +  3  +  4  + 
G|-------------------------|-------------------------|
D|-------------------------|-------------------------|
A|-11-11-11-13-13-13-13-13-|-13-13-13-13-13-13-13-11-|
E|-------------------------|-------------------------|

   1  +  2  +  3  +  4  +    1  +  2  +  3  +  4  + 
G|-------------------------|-------------------------|
D|-------------------------|-------------------------|
A|-11-11-11-13-13-13-13-13-|-13-13-13-13-13-13-13-13-|
E|-------------------------|-------------------------|

   1  +  2  +  3  +  4  +    1  +  2  +  3  +  4  + 
G|-------------------------|-------------------------|
D|-------------------------|-------------------------|
A|-------------------------|-------------------------|
E|-11-11-11-11-13-13-13-13-|-13-13-13-13-13-13-13-13-|

   1  +  2  +  3  +  4  +    1  +  2  +  3  +  4  + 
G|-------------------------|-------------------------|
D|-------------------------|-------------------------|
A|-------------------------|-------------------------|
E|-13-11-11-13-13-13-13-13-|-13-13-13-13-13-13-13-13-|

[Chorus]
   1  +  2  +  3  +  4  +    1  +  2  +  3  +  4  + 
G|-------------------------|-------------------------|
D|-------------------------|-------------------------|
A|-------------------------|----------4--4--4--4-----|
E|-1--1--1--1--1--1--1--1--|-1--1--1--------------4--|

   1  +  2  +  3  +  4  +    1  +  2  +  3  +  4  + 
G|-------------------------|-------------------------|
D|-------------------------|-------------------------|
A|-------------------------|----------6--6--6--6-----|
E|-4--4--4--4--4--4--4--4--|-4--4--4--------------6--|

   1  +  2  +  3  +  4  +    1  +  2  +  3  +  4  + 
G|-------------------------|-------------------------|
D|-------------------------|-------------------------|
A|-------------------------|----------------------4--|
E|-6--6--6--6--6--6--6--6--|-6--6--6--4--4--4--4-----|

   1  +  2  +  3  +  4  +    1  +  2  +  3  +  4  + 
G|-------------------------|-------------------------|
D|-------------------------|-------------------------|
A|-4--4--4--4--4--4--4--4--|-4--4--4--4--4--6--6--8--|
E|-------------------------|-------------------------|

   1  +  2  +  3  +  4  +    1  +  2  +  3  +  4  + 
G|-------------------------|-------------------------|
D|-------------------------|-------------------------|
A|-------------------------|----------4--4--4--4-----|
E|-1--1--1--1--1--1--1--1--|-1--1--1--------------4--|

   1  +  2  +  3  +  4  +    1  +  2  +  3  +  4  + 
G|-------------------------|-------------------------|
D|-------------------------|-------------------------|
A|-------------------------|----------6--6--6--6-----|
E|-4--4--4--4--4--4--4--4--|-4--4--4--------------6--|

   1  +  2  +  3  +  4  +    1  +  2  +  3  +  4  + 
G|-------------------------|-------------------------|
D|-------------------------|-------------------------|
A|-------------------------|----------------------4--|
E|-6--6--6--6--6--6--6--6--|-6--6--6--4--4--4--4-----|

   1  +  2  +  3  +  4  +    1  +  2  +  3  +  4  + 
G|-------------------------|-------------------------|
D|-------------------------|-------------------------|
A|-4--4--4--4--4--4--4--4--|-4--4--4-----------------|
E|-------------------------|----------6--6--6--1--1--|

[Verse]
   1  +  2  +  3  +  4  +    1  +  2  +  3  +  4  + 
G|-------14-14-14-14-14----|-------------------------|
D|----------------------11-|-11-11-11-13-13-13-13-15-|
A|-------------------------|-------------------------|
E|-------------------------|-------------------------|

   1  +  2  +  3  +  4  +    1  +  2  +  3  +  4  + 
G|-------------14-14-14----|-------------------------|
D|-15-13-15-15----------11-|-11-11-11-13-13-13-13-15-|
A|-------------------------|-------------------------|
E|-------------------------|-------------------------|

   1  +  2  +  3  +  4  +    1  +  2  +  3  +  4  + 
G|-------------14-14-14----|-------------------------|
D|----15-15-15----------11-|-11-11-11-13-13-13-13-15-|
A|-------------------------|-------------------------|
E|-------------------------|-------------------------|

   1  +  2  +  3  +  4  +    1  +  2  +  3  +  4  + 
G|-------------14-14-14----|-------------------------|
D|-15-13-15-15----------11-|-11-11-11-13-13-13-13----|
A|-------------------------|----------------------11-|
E|-------------------------|-------------------------|

[Bridge]
   1  +  2  +  3  +  4  +    1  +  2  +  3  +  4  + 
G|-------------------------|-------------------------|
D|-------------------------|-------------------------|
A|-11-11-11-13-13-13-13-13-|-13-13-13-13-13-13-13-11-|
E|-------------------------|-------------------------|

   1  +  2  +  3  +  4  +    1  +  2  +  3  +  4  + 
G|-------------------------|-------------------------|
D|-------------------------|-------------------------|
A|-11-11-11-13-13-13-13-13-|-13-13-13-13-13-13-13-13-|
E|-------------------------|-------------------------|

[Chorus]
   1  +  2  +  3  +  4  +    1  +  2  +  3  +  4  + 
G|-------------------------|-------------------------|
D|-------------------------|-------------------------|
A|-------------------------|----------4--4--4--4-----|
E|-1--1--1--1--1--1--1--1--|-1--1--1--------------4--|

   1  +  2  +  3  +  4  +    1  +  2  +  3  +  4  + 
G|-------------------------|-------------------------|
D|-------------------------|-------------------------|
A|-------------------------|----------6--6--6--6-----|
E|-4--4--4--4--4--4--4--4--|-4--4--4--------------6--|

   1  +  2  +  3  +  4  +    1  +  2  +  3  +  4  + 
G|-------------------------|-------------------------|
D|-------------------------|-------------------------|
A|-------------------------|----------------------4--|
E|-6--6--6--6--6--6--6--6--|-6--6--6--4--4--4--4-----|

   1  +  2  +  3  +  4  +    1  +  2  +  3  +  4  + 
G|-------------------------|-------------------------|
D|-------------------------|-------------------------|
A|-4--4--4--4--4--4--4--4--|-4--4--4--4--4--6--6--8--|
E|-------------------------|-------------------------|

   1  +  2  +  3  +  4  +    1  +  2  +  3  +  4  + 
G|-------------------------|-------------------------|
D|-------------------------|-------------------------|
A|-------------------------|----------4--4--4--4-----|
E|-1--1--1--1--1--1--1--1--|-1--1--1--------------4--|

   1  +  2  +  3  +  4  +    1  +  2  +  3  +  4  + 
G|-------------------------|-------------------------|
D|-------------------------|-------------------------|
A|-------------------------|----------6--6--6--6-----|
E|-4--4--4--4--4--4--4--4--|-4--4--4--------------6--|

   1  +  2  +  3  +  4  +    1  +  2  +  3  +  4  + 
G|-------------------------|-------------------------|
D|-------------------------|-------------------------|
A|-------------------------|----------------------4--|
E|-6--6--6--6--6--6--6--6--|-6--6--6--4--4--4--4-----|

   1  +  2  +  3  +  4  +    1  +  2  +  3  +  4  + 
G|-------------------------|-------------------------|
D|-------------------------|-------------------------|
A|-4--4--4--4--4--4--4--4--|-4--4--4-----------------|
E|-------------------------|----------6--6--6--1--1--|

(Rest)

[Bridge] 
(Bass back in at 2:38)
   1  +  2  +  3  +  4  +    1  +  2  +  3  +  4  + 
G|-------------------------|-------------------------|
D|-------------------------|-------------------------|
A|-------------------------|----------11----13-------|
E|-11-13-13-13-13-11-13-13-|-13-13-13----13----13-11-|

   1  +  2  +  3  +  4  +    1  +  2  +  3  +  4  + 
G|-------------------------|-------------------------|
D|-------------------------|-------------------------|
A|-------------------------|----------11----13-------|
E|-11-13-13-13-13-11-13-13-|-13-13-13----13----13-11-|

[Chorus]
   1  +  2  +  3  +  4  +    1  +  2  +  3  +  4  + 
G|-------------------------|-------------------------|
D|-------------------------|-------------------------|
A|-------------------------|----------4--4--4--4-----|
E|-1--1--1--1--1--1--1--1--|-1--1--1--------------4--|

   1  +  2  +  3  +  4  +    1  +  2  +  3  +  4  + 
G|-------------------------|-------------------------|
D|-------------------------|-------------------------|
A|-------------------------|----------6--6--6--6-----|
E|-4--4--4--4--4--4--4--4--|-4--4--4--------------6--|

   1  +  2  +  3  +  4  +    1  +  2  +  3  +  4  + 
G|-------------------------|-------------------------|
D|-------------------------|-------------------------|
A|-------------------------|----------------------4--|
E|-6--6--6--6--6--6--6--6--|-6--6--6--4--4--4--4-----|

   1  +  2  +  3  +  4  +    1  +  2  +  3  +  4  + 
G|-------------------------|-------------------------|
D|-------------------------|-------------------------|
A|-4--4--4--4--4--4--4--4--|-4--4--4--4--4--6--6--8--|
E|-------------------------|-------------------------|

   1  +  2  +  3  +  4  +    1  +  2  +  3  +  4  + 
G|-------------------------|-------------------------|
D|-------------------------|-------------------------|
A|-------------------------|----------4--4--4--4-----|
E|-1--1--1--1--1--1--1--1--|-1--1--1--------------4--|

   1  +  2  +  3  +  4  +    1  +  2  +  3  +  4  + 
G|-------------------------|-------------------------|
D|-------------------------|-------------------------|
A|-------------------------|----------6--6--6--6-----|
E|-4--4--4--4--4--4--4--4--|-4--4--4--------------6--|

   1  +  2  +  3  +  4  +    1  +  2  +  3  +  4  + 
G|-------------------------|-------------------------|
D|-------------------------|-------------------------|
A|-------------------------|----------------------4--|
E|-6--6--6--6--6--6--6--6--|-6--6--6--4--4--4--4-----|

   1  +  2  +  3  +  4  +    1  +  2  +  3  +  4  + 
G|-------------------------|-------------------------|
D|-------------------------|-------------------------|
A|-4--4--4--4--4--4--4--4--|-4--4--4-----------------|
E|-------------------------|----------6--6--6--1--1--|

   1  +  2  +  3  +  4  +    1  +  2  +  3  +  4  + 
G|-------------------------|-------------------------|
D|-------------------------|-------------------------|
A|-------------------------|----------4--4--4--4-----|
E|-1--1--1--1--1--1--1--1--|-1--1--1--------------4--|

   1  +  2  +  3  +  4  +    1  +  2  +  3  +  4  + 
G|-------------------------|-------------------------|
D|-------------------------|-------------------------|
A|-------------------------|----------6--6--6--6-----|
E|-4--4--4--4--4--4--4--4--|-4--4--4--------------6--|

   1  +  2  +  3  +  4  +    1  +  2  +  3  +  4  + 
G|-------------------------|-------------------------|
D|-------------------------|-------------------------|
A|-------------------------|----------------------4--|
E|-6--6--6--6--6--6--6--6--|-6--6--6--4--4--4--4-----|

   1  +  2  +  3  +  4  +    1  +  2  +  3  +  4  + 
G|-------------------------|-------------------------|
D|-------------------------|-------------------------|
A|-4--4--4--4--4--4--4--4--|-4--4--4-----------------|
E|-------------------------|----------6--6--6--1--1--|

            
            
Suggest correction
Creating personal tab
Creating personal tab
You can edit any tab online and save it as your Personal.

You can edit, replace or remove any tab part or add personal notes – all changes will be seen only by you.

Personal tabs can be accessed anytime from any device, even offline.
Learn more »
comments
print report bad tab
1 comment total.
0 reply
lucbuzz 415 Jul 21, 2017 09:33 PM

Aww man, you beat me to the song! Great tab excellent work.

guest
You may want to rate the tab now too:
select rating
Wanna post a correction for this tab? Suggest correction